» » »

Double Nature Tabs (ver.2)

Artists:  A B C D E F G H I J K L M N O P Q R S T U V W X Y Z # 

Double Nature Tabs (ver.2)

Mustasch
Rating:
0/5 (0 votes)

Hard to play? Try these video lessons and learn fast.
                By Anton
Tuning: Drop D
Key: D minor
Only got some parts of the solo but I will finish it later.


Intro (Clean)

E|----------------------|
H|----------------------|
G|----------------------|
D|----------------------|
A|------------3-------5-|
D|--0--0--5h7---0-5h7---|


Second guitar plays this (also played in bridge)

E|------5---8------7------5-----|
H|---6----6---6------6------6---|
G|-7-------------7------7-----7-|
D|------------------------------|
A|------------------------------|
D|------------------------------|


Main Riff (Distortion)
                                    
e|------------------------------------|--------------------|
B|------------------------------------|--------------------|
G|---7--------------------------------|--7-7-7--5-5-5------|
D|---7--------------------------------|--7-7-7--5-5-5------|
A|---5--------------------------------|--5-5-5--3-3-3------|
D|-------0--0--0-0-0-0-0-0-0----------|--------------------|
         PM-----------------



Chorus Riff

E|-----------------------------------|-----------------|
H|-----------------------------------|-----------------|
G|-----------------------------------|-----------------|
D|-----------------------------------|---7-----7/------|
A|-----------------------------------|---7-----7/------|
D|-0--3h7-0-5h8-0-7h8-0-8h10-0-10h12-|---7-----7/------|


Solo (Second guitar plays Main Riff) 

e|------------------------------|--------------------|
B|---13--13--13--13--13---------|--------------------|
G|---12b-12b-12b-12b-12b-10-----|-------10h12p10-----|
D|--------------------------12--|--10-12---------12--|
A|------------------------------|--------------------|
D|------------------------------|--------------------|

e|---------------------------------------------------|
B|---------------------------------------------------|
G|-------10h12p10----10------------------------------|
D|--10-12---------12----12-10----10------------------|
A|----------------------------12----12-10h12p10------|
D|-----------------------------------------------10~-|

e|--15b-15b-15b-13h15p13-----------------------------| 
B|-----------------------15p13h15--------------------|   This is where
G|---------------------------------------------------|   I go blank
D|---------------------------------------------------|
A|---------------------------------------------------|
D|---------------------------------------------------|

Ending of Solo

e|---------------------------------------------------|
B|--13-----13--------13------------------------------|
G|--12b-(hold bend)--12b-----------------------------|
D|---------------------------------------------------|
A|---------------------------------------------------|
D|---------------------------------------------------|
            
Hard to play? Try these video lessons and learn fast. | Correct




comments powered by Disqus
↑ Back to top | Tablatures and chords are parodies/interpretations of the original songs. You may use it for private study, scholarship, research or language learning purposes only