» » »

Mushroomhead, Your Soul Is Mine Tabs (ver.1)

Artists:  A B C D E F G H I J K L M N O P Q R S T U V W X Y Z # 

Your Soul Is Mine Tabs (ver.1)

Mushroomhead Tabs
 Rating:
4/5 (4 votes)
Your Soul Is Mine lessons Tabs too difficult? Try these video lessons and learn fast
                -------------------------------------------------------------------------------
-------------------------------------------------------------------------------

Tuning:Standard

intro-verse 1: (x4)
4/4          [Fig 1]
e|-----------------|
B|-----------------|
G|-----------------|
D|-----------------|
A|-8-------9-------|
E|-6-------7-------|
 (chorus x2)   
4/4          [Fig 2:
e|-----------------|-----------------|-------|-----------------------|-----------------------|
B|-----------------|-----------------|-------|-----------------------|-----------------------|
G|-----------------|-----------------|-------|-----------------------|-----------------------|
D|-----------------|-----------------|-------|-----------------------|-----------------------|
A|-8/---6-8-9---8/-|-6-8\11-9---8-8/-|-6-8-9-|-----------------------|-----------------------|
E|-6/---4-6-7---6/-|-4-6\9--7---6-6/-|-4-6-7-|-000-000-000-000-00-00-|-000-000-000-000-00-00-|

2/4...Fig 2] verse 2:
e|---------||---------|---------|
B|---------||---------|---------|
G|---------||-(Fig 1)-|-(Fig 2)-|
D|---------||---(x1)--|---(x2)--|
A|---------||---------|---------|
E|-000-000-||---------|---------|

Solo: (rhythm guitar plays fig 1 during the solo)
                                                   [Fig 3]
e|-------------------------------------------------------|
B|-------------------------------------------------------|
G|-------------------------------------------------------|
D|-------------------------------------------------------|
A|-------5h6p5-----5h6\8--8h9-8h9p8/6-6-8h6/5-6-6h5------|
E|-6--6h7-----7-6h7--------------------------------7-6h7-|
                                                       [Fig 4]
e|-5h6p5-----------------------------------------------------|
B|------7-6h7p6-----6h7p6------------------------------------|
G|-------------8-7h8-----8-7h8-7h8p7-----7h8p7---------------|
D|----------------------------------9-8h9-----9-8h9-8h9p8/4--|
A|-----------------------------------------------------------|
E|---------------------------------------------------------6-|

 verse 4:             verse 5:       
e|---------|---------|---------|
B|---------|---------|---------|
G|-(Fig 1)-|-(Fig 2)-|-(Fig 1)-|
D|---(x4)--|---(x2)--|---(x4)--|
A|---------|---------|---------|
E|---------|---------|---------|


(play solo again over verse 5 starting from figure 4 instead 
          and continue till the end) 

  Tip: for drop down tuning just transport 1 or 2 frets lower the whole tab!
       Have fun...
            
Submit corrections

comments powered by Disqus
↑ Back to top | Mushroomhead Tabs for Your Soul Is Mine. Lyrics for acoustic guitar and electric guitar. Tablatures and chords are parodies/interpretations of the original songs. You may use it for private study, scholarship, research or language learning purposes only