» » »

Sun Doesnt Rise Bass tabs (ver.3)

Artists:  A B C D E F G H I J K L M N O P Q R S T U V W X Y Z # 

Sun Doesnt Rise Bass tabs (ver.3)

Mushroomhead
Rating:
0/5 (0 votes)

Tabs too difficult? Try these video lessons and learn fast.
                Intro
e|------------|
a|-222-445545-|
d|------------|
g|------------|x2

verse1
e|---1-3-1-3-0-----------3-5-3-5-0------|
a|------------3-5-5-3-0-----------------|
d|--------------------------------------|
g|--------------------------------------|x3

chorus
e|-1-3-1-3---------|
a|---------1-3-1-3-|
d|-----------------|
g|-----------------|x5

verse1x2

outro
e|-----------0-|
a|-555-4-3-----|
d|-------------|
g|-------------|x5
            
Tabs too difficult? Try these video lessons and learn fast.




comments powered by Disqus
↑ Back to top | Tablatures and chords are parodies/interpretations of the original songs. You may use it for private study, scholarship, research or language learning purposes only