» » »

Sun Doesn Rise Bass tabs (ver.1)

Artists:  A B C D E F G H I J K L M N O P Q R S T U V W X Y Z # 

Sun Doesn Rise Bass tabs (ver.1)

Mushroomhead
Rating:
0/5 (0 votes)

Hard to play? Try these video lessons and learn fast.
                As played by Pig Benis.

Every other tab for this song is in droped-D  and thats wrong.
Here is how its played on the cd.

Tuning: B/E/A/D/G

this comes in after "i cant find a way to begin my life..."

   G|-----------------------|
   D|-----------------------|
2x A|-2-4-4-4-4-5-5-5-5-5-5-|
   E|-----------------------|
   B|-----------------------|

   G|------------------------------------------|
   D|------------------------------------------|
1x A|-2-4-4-4-4-5-5-5-5-5-5--4---------4-4-2-2-|
   E|--------------------------5-5-5-5---------|
   B|------------------------------------------|

   G|-------------------------|
   D|-------------------------|
2x A|-------------------------|
   E|-------------------------|
   B|-2-xx-2-xxxx-2-xx-2-xxxx-|

   G|-------------------------------------|
   D|-------------------------------------|
x1 A|-------------------------------------|
   E|-------------------------------------|
   B|-2-xx-2-xx-4-5-5-5-2-xx-2-xx-4-5-5-5-|

   G|------------------------------|
   D|------------------------------|
x1 A|------------------------------|
   E|------------------------------|
   B|-2-xx-2-xx-4-5-5-5--4-7-7-3-1-|

   G|---------------------------|
   D|---------------------------|
x3 A|---------------------------|
   E|-----------5---------------|
   B|-0-xx-0-xx---0-5-5-8-8-3-3-|

   G|-------------------------|
   D|-------------------------|
x1 A|-------------------------|
   E|-----------5---5-3-3-2-0-|
   B|-0-xx-0-xx---0-----------|


   G|-------------------------|
   D|-------------------------|
2x A|-------------------------|
   E|-------------------------|
   B|-2-xx-2-xxxx-2-xx-2-xxxx-|

   G|-------------------------------------|
   D|-------------------------------------|
x1 A|-------------------------------------|
   E|-------------------------------------|
   B|-2-xx-2-xx-4-5-5-5-2-xx-2-xx-4-5-5-5-|

   G|------------------------------|
   D|------------------------------|
x1 A|------------------------------|
   E|------------------------------|
   B|-2-xx-2-xx-4-5-5-5--4-7-7-3-1-|

   G|-------------------------------------|
   D|-------------------------------------|
x1 A|-------------------------------------|
   E|-------------------------------------|
   B|-2-xx-2-xx-4-5-5-5-2-xx-2-xx-4-5-5-5-|


   G|------------------------------|
   D|------------------------------|
x1 A|------------------------------|
   E|------------------------------|
   B|-2-xx-2-xx-4-5-5-5--4-7-7-3-1-|

   G|---------------------------|
   D|---------------------------|
x3 A|---------------------------|
   E|-----------5---------------|
   B|-0-xx-0-xx---0-5-5-8-8-3-3-|

   G|---------------------------|
   D|---------------------------|
x1 A|---------------------------|
   E|-----------5---5-3-3-2-0---|
   B|-0-xx-0-xx---0-----------0-|

BREAK=====
----once J. Mann comes in....
   G|-----------------------|
   D|-----------------------|
2x A|-2-4-4-4-4-5-5-5-5-5-5-|
   E|-----------------------|
   B|-----------------------|

   G|------------------------------------------|
   D|------------------------------------------|
1x A|-2-4-4-4-4-5-5-5-5-5-5--4---------4-4-2-2-|
   E|--------------------------5-5-5-5---------|
   B|------------------------------------------|

   G|-------------------------|
   D|-------------------------|
2x A|-------------------------|
   E|-------------------------|
   B|-2-xx-2-xxxx-2-xx-2-xxxx-|

   G|---------------------------|
   D|---------------------------|
x3 A|---------------------------|
   E|-----------5---------------|
   B|-0-xx-0-xx---0-5-5-8-8-3-3-|

   G|-------------------------|
   D|-------------------------|
x1 A|-------------------------|
   E|-----------5---5-3-3-2-0-|
   B|-0-xx-0-xx---0-----------|

   G|-----------------------------------------|
   D|-----------------------------------------|
4x A|-----------------------------------------|
   E|-----------------------------------------|
   B|-2-2-2-xx-2-2-2-xxxx-2-2-2-xx-2-2-2-xxxx-|

-END-
            
Hard to play? Try these video lessons and learn fast. | Correct




comments powered by Disqus
↑ Back to top | Tablatures and chords are parodies/interpretations of the original songs. You may use it for private study, scholarship, research or language learning purposes only