» » »

Mushroomhead, Simple Survival Tabs (ver.1)

Artists:  A B C D E F G H I J K L M N O P Q R S T U V W X Y Z # 

Simple Survival Tabs (ver.1)

Mushroomhead Tabs
 Rating:
4/5 (4 votes)
Simple Survival lessons Tabs too difficult? Try these video lessons and learn fast
1
                I really have no idea if this is right, it sounded close though. The secondary part of 
fist verse or intro is played pretty quick, so with the palm mute it's a little tricky. 
to the song for timing.

`=palm mute
~=let ring

Intro and first verse (00:11)
e-------------------------------|
b-------------------------------|
g-------------------------------|
d-`3-`3-`3-`3-`3-`3-`3-`3-------|     x3
a-`3-`3-`3-`3-`3-`3-`3-`3-------|
d-`3-`3-`3-`3-`3-`3-`3-`3-------|

^^^ Keep in mind this section is played the full 3 times in about 4.5 seconds

Secondary part after every 1st verse (00:15.5)
-------------|
-------------|
-------------|
`3-`3`3`3-`3-|`3`3`3`3`3
`3-`3`3`3-`3-|`3`3`3`3`3
`3-`3`3`3-`3-|`3`3`3`3`3

(Optional) 1:10 (Chorus) This actually lets you do something ELSE. it goes with the 
but it isnt technically correct.

---------------------------------|
---------------------------------|
---------------------------------|
-3-3-3-3-3-3-3-3-3-3-3-3-3-3-3-3-|
-3-3-3-3-3-3-3-3-3-3-3-3-3-3-3-3-|
-3-3-3-3-3-3-3-3-3-3-3-3-3-3-3-3-|

---------------------------------|
---------------------------------|
---------------------------------|
-6-6-6-6-6-6-6-6-6-6-6-6-6-6-6-6-|
-6-6-6-6-6-6-6-6-6-6-6-6-6-6-6-6-|
-6-6-6-6-6-6-6-6-6-6-6-6-6-6-6-6-|

---------------------------------|
---------------------------------|
---------------------------------|
-8-8-8-8-8-8-8-8-8-8-8-8-8-8-8-8-|
-8-8-8-8-8-8-8-8-8-8-8-8-8-8-8-8-|
-8-8-8-8-8-8-8-8-8-8-8-8-8-8-8-8-|


Second Verse (1:47) and (1:57)

-----------------------------|
-----------------------------|
-----------------------------|
3---5---1---6--5--3--8--7--1-|
3---5---1---6--5--3--8--7--1-|
3---5---1---6--5--3--8--7--1-|

(1:52) Continuation
------------------------------|
------------------------------|
------------------------------|      Once then back to 2nd verse then back again.
3---5---1~--------------------|
3---5---1~--------------------|
3---5---1~--------------------|

Third Verse (2:08) Not muted

---------------------------------|
---------------------------------|
---------------------------------|
3-3-3--3-3-3----3-3-3--3-3-3-----|
3-3-3--3-3-3----3-3-3--3-3-3-----|
3-3-3--3-3-3----3-3-3--3-3-3-----|

Continuation (2:14) All of this palm muted
-------------------------------|
-------------------------------|
-------------------------------|       x2
3333--3333----3333--3333-------|
3333--3333----3333--3333-------|

(2:24)      All palm muted
-------------------------------|
-------------------------------|
-------------------------------|       x2
3333--3333---33333-3333--3333--|
3333--3333---33333-3333--3333--|
3333--3333---33333-3333--3333--|


(2:30) First verse
            
Submit corrections

comments powered by Disqus
↑ Back to top | Mushroomhead Tabs for Simple Survival. Lyrics for acoustic guitar and electric guitar. 1 Tablatures and chords are parodies/interpretations of the original songs. You may use it for private study, scholarship, research or language learning purposes only