» » »

Save Us Tabs (ver.1)

Artists:  A B C D E F G H I J K L M N O P Q R S T U V W X Y Z # 

Save Us Tabs (ver.1)

Mushroomhead
Rating:
0/5 (0 votes)

Hard to play? Try these video lessons and learn fast.
                All X's are open palm mutes.
Notes with *'s above them might be played on only the A string.

D|---------------------------------|
A|---------------------------------|
F|---------------------------------|
C|-----5-55-5----------------------|X2-----------|
G|-----3-33-3---------*****-*------|             |
D|-3-3-------6-6-3-3-398989-6-3-3--|             |
A|-1-1-------4-4-1-1-176767-4-1X1--|             |
                                                 |x2
D|--------------|                                |
A|--------------|                                |
F|--------------|                                |
C|--------------|--------------------------------|
G|--*****-*-----|
D|--98989-6-3-3-|
A|-X76767-4-1X1-|

D|---------------------------------|
A|---------------------------------|
F|---------------------------------|
C|-----5-55-5----------------------|X2
G|-----3-33-3---------*****-*------|
D|-3-3-------6-6-3-3-398989-6-3-3--|
A|-1-1-------4-4-1-1-176767-4-1X1--|

D|--------------|
A|--------------|
F|--------------|
C|--------------|
G|--*****-*-----|
D|--98989-6-3-3-|
A|-X76767-4-1X1-|

D|---------------------------------|
A|---------------------------------|
F|---------------------------------|
C|-----5-55-5----------------------|
G|-----3-33-3---------*****-*------|
D|-3-3-------6-6-3-3-398989-6-3-3--|
A|-1-1-------4-4-1-1-176767-4-1X1--|

D|-----------------|
A|-----------------|
F|-----------------|
C|-----------------|X4
G|-----------------|
D|-3-----6-8--8986-|
A|-1XXXX04060-6764-|

D|-------------------|
A|-------------------|
F|-------------------|
C|-------------------|
G|-------------------|
D|-6-898-------------|
A|-4X676-------------|

D|-------------------|
A|-------------------|
F|-------------------|
C|-------------------|X3
G|-------------------|
D|-3--8986-----------|
A|-1XX6764-----------|

D|-------------------|
A|-------------------|
F|-------------------|
C|-------------------|
G|-------------------|
D|-3----6----8-8-986-|
A|-1XXXX4XXXX6X6/764-|

D|-----------------|
A|-----------------|
F|-----------------|
C|-----------------|
G|-----------------|
D|-3-----6-8--8986-|
A|-1XXXX04060-6764-|

D|---------------------------------|
A|---------------------------------|
F|---------------------------------|
C|-----5-55-5----------------------|
G|-----3-33-3---------*****-*------|
D|-3-3-------6-6-3-3-398989-6-3-3--|
A|-1-1-------4-4-1-1-176767-4-1X1--|

D|--------------|
A|--------------|
F|--------------|
C|--------------|
G|--*****-*-----|
D|--98989-6-3-3-|
A|-X76767-4-1X1-|

D|---------------------------------|
A|---------------------------------|
F|---------------------------------|
C|-----5-55-5----------------------|
G|-----3-33-3---------*****-*------|
D|-3-3-------6-6-3-3-398989-6-3-3--|
A|-1-1-------4-4-1-1-176767-4-1X1--|

D|--------------|
A|--------------|
F|--------------|
C|--------------|
G|--*****-*-----|
D|--98989-6-3-3-|
A|-X76767-4-1X1-|

D|---------------------------------|
A|---------------------------------|
F|---------------------------------|
C|-----5-55-5----------------------|
G|-----3-33-3---------*****-*------|
D|-3-3-------6-6-3-3-398989-6-3-3--|
A|-1-1-------4-4-1-1-176767-4-1X1--|

D|--------------|
A|--------------|
F|--------------|
C|--------------|
G|--*****-*-----|
D|--98989-6-3-3-|
A|-X76767-4-1X1-|
            
Hard to play? Try these video lessons and learn fast. | Correct




comments powered by Disqus
↑ Back to top | Tablatures and chords are parodies/interpretations of the original songs. You may use it for private study, scholarship, research or language learning purposes only