>
 >
Save Us

Save Us Bass Tabs

Mushroomhead - Save Us chords, tabs, tablatures, lyrics

Guitar lessons | Add/correct | Request | Top 50 tabs Artists:  A B C D E F G H I J K L M N O P Q R S T U V W X Y Z 0-9

Save Us Bass Tabs – Mushroomhead

CD, Sheet music, Poster

Do you like Save Us? Share with your friends now
Bass TabsBass Tabs v2Tabs
Intro - 120-125 tempo. 4/4 time.

    Quarter notes --------------------------->
G---------3----|------3--1----|---------1----|---------------|
D------3-----3-|------------3-|------3-----3-|---------------|
A---1----------|---1----------|---4----------|---4--1~-------|
E--------------|--------------|--------------|---------------|


G------3-3-----|--t--i--e-----|------3-3-----|-----1-1-3-3-3-|
D---1---1-1----|-/------------|---1---1-1----|----1-1--------|
A-----------4--|---4----------|-----------4--|---4-----------|
E--------------|--------------|--------------|---------------| x2
                                           / tie

Chorus

(About 120-125 tempo)
    1  + 3           +2  3 +      1  + 3           + 2  + +

G--------------|--------------|--------------|--------------|
D--------------|------3--3-3--|--------------|-----1--------|
A---1--1-1-----|---1-1--------|---4--4-4-----|---4---1--1-1-|
E-----------/--|--------------|-----------/--|--------------|
            tie                            tie
   1 + 2 + 3+ 4         2+3 +
G----------------|------------r--|    |---------------|
D--2-1-2-1-2-----|------------e--|    |---------------|
A-----------1-4--|---4--1-1-1-s--|    |---4--1---1----|
E--------------/-|-------1----t--| x2 |-------1-1-1-1-| (2nd ending 2nd time through)
              tie
G--------------|-----------------|-------------|-------------|
D--------------|-----------------|-------------|-------------|
A--1--1/-12----|--12-12----------|-------------|----6--------|
E-----------/--|-------13--13-13-|--9--9-9-----|--9---6--6-6-| etc <---alternative
             tie                             tie

:guitar solo:

Bridge
             +     1+2+3+  4          + 2 3 4
                             tie
G--R------------|----------------|----------------|
D--E------------|-------------/--|------3---------|
A--S------------|--4---4---6-----|--6-4---6-4-----|
E--T---------6--|---666-6--------|----------------| x3
 (x3)
   1+2+3+  4         + 2 3 4+       1+ 2 3 + 4 +
G---------------|----------------|----------------| |---------------|
D------------/--|------3---------|--3-------------| |--5\~~~~~~~~~~~|
A--4---4---6----|--6-4---6--4----|---6-4----------| |---------------|
E---666-6-------|----------6-----|-------6-6*6*6*-| |---------------| (end)
                                           P.M^^
x6

Outro (chorus until the end). Enjoy!





Comments


Popular Mushroomhead tabs & chords
Before I Do Bass Tabs
Bwomp Bass Tabs
Solitaire Unraveling 1 Bass Tabs
These Filthy Hands Bass Tabs
Wrist Bass Tabs
2nd Thoughts Tabs
Almost Gone 3 Tabs
Casualties In B Minor Tabs
Solitaire/Unraveling 1 Tabs
Sun Doesnt Rise 1 Tabs


Song lyrics



↑ Back to top | Tablatures and chords are parodies/interpretations of the original songs. You may use it for private study, scholarship, research or language learning purposes only
© 2014 AZChords.com Contact us | Privacy policy | DMCA | Add/correct tabs | Request tabs | Top 50 tabs