» » »

Mushroomhead, Nowhere To Go Tabs (ver.3)

Artists:  A B C D E F G H I J K L M N O P Q R S T U V W X Y Z # 

Nowhere To Go Tabs (ver.3)

Mushroomhead Tabs
Rating:
5/5 (1 vote)
Nowhere To Go lessons Tabs too difficult? Try these video lessons and learn fast
                Nowhere To Go from Mushroomhead
Tuning:ADGCFAD
This song's got some neat timing, listen well.


Intro
------------------------------------------------------------------|
------------------------------------------------------------------|
------------------------------------------------------------------|
-5555555555555555------------------------------------555-55-55-55-|
-5555555555555555-6666666666666666-6/888888888888888-555-55-55-55-|
-3333333333333333-6666666666666666-6/888888888888888-333-33-33-33-|
------------------4444444444444444-4/666666666666666--------------|

Verse
Guitar 1
--------------|
--------------|
--------------|
-5~-----------|
-x------------|
-3~-----------|
--------------|

Guitar 2
-3~-------------|
-3~-------------|
-4~--0~--0~-----|
-5~--5~--7~-----|
-5~--6~--8~-----|
-3~--6~--8~-----|
-----4~--6~-----|

Chorus
-----------------------------------------------------|
-----------------------------------------------------|
-----------------------------------------------------|
-5555555555555555------------------------------------|
-5555555555555555-6666666666666666-6/888888888888888-|
-3333333333333333-6666666666666666-6/888888888888888-|
------------------4444444444444444-4/666666666666666-|

-play Verse
-play Chorus

Interlude1
---------------------------------------------------------------|
---------------------------------------------------------------|
---------------------------------------------------------------|
-555-55-55-55//-------------------------------5555555555555555-|
-555-55-55-55//-666-66-66-66//-888-88-88-88//-5555555555555555-|
-333-33-33-33//-666-66-66-66//-888-88-88-88//-3333333333333333-|
----------------444-44-44-44//-666-66-66-66//------------------|
 ... .. .. .    ... .. .. .    ... .. .. .    ................

Interlude 2 is the Chorus with Guitar 2 doing some higher notes.

-play Verse

Last Chorus:
-play the Chorus normally once then:

-------------------------------------------------|
-------------------------------------------------|
-------------------------------------------------|
-555-55-55-55------------------------------------|X2
-555-55-55-55-6666666666666666-6/888888888888888-|
-333-33-33-33-6666666666666666-6/888888888888888-|
--------------4444444444444444-4/666666666666666-|
 ... .. .. ..
-then chorus once normally.

Outro
---------------------------------------------------|
---------------------------------------------------|
---------------------------------------------------|
-555-55-55-55//---------------------------------5~-|
-555-55-55-55//-666-66-66-66//-888-88-88-888888-5~-|
-333-33-33-33//-666-66-66-66//-888-88-88-888888-3~-|
----------------444-44-44-44//-666-66-66-666666----|
 ... .. .. .    ... .. .. .    ... .. .. ......
            
Submit corrections

comments powered by Disqus
↑ Back to top | Mushroomhead Tabs for Nowhere To Go. Lyrics for acoustic guitar and electric guitar. Tablatures and chords are parodies/interpretations of the original songs. You may use it for private study, scholarship, research or language learning purposes only