>
 >
Nowhere To Go

Nowhere To Go Guitar Tabs

Mushroomhead - Nowhere To Go chords, tabs, tablatures, lyrics

Guitar lessons | Add/correct | Request | Top 50 tabs Artists:  A B C D E F G H I J K L M N O P Q R S T U V W X Y Z 0-9

Nowhere To Go Guitar Tabs – Mushroomhead

CD, Sheet music, Poster

Do you like Nowhere To Go? Share with your friends now
Bass TabsTabsTabs v2Tabs v3
Band - Mushroomhead
Song - Nowhere To Go
Album - XIII
Tuning - B,E,A,D,G,B,E

Intro - Guitars 1 & 2
|-----------------------------------------------------------------|
|-----------------------------------------------------------------|
|-----------------------------------------------------------------|
|-3-3-3-3-3-3-3-3-3-3-3-3-3-3-3-3---------------------------------|
|-3-3-3-3-3-3-3-3-3-3-3-3-3-3-3-3-4-4-4-4-4-4-4-4-4-4-4-4-4-4-4-4-|
|-1-1-1-1-1-1-1-1-1-1-1-1-1-1-1-1-4-4-4-4-4-4-4-4-4-4-4-4-4-4-4-4-|
|---------------------------------2-2-2-2-2-2-2-2-2-2-2-2-2-2-2-2-|

|---------------------------------------------------------|
|---------------------------------------------------------|
|---------------------------------------------------------|
|---------------------------------3-3-3---3-3---3-3---3-3-|
|-4/6-6-6-6-6-6-6-6-6-6-6-6-6-6-6-3-3-3---3-3---3-3---3-3-|
|-4/6-6-6-6-6-6-6-6-6-6-6-6-6-6-6-1-1-1---1-1---1-1---1-1-|
|-2/4-4-4-4-4-4-4-4-4-4-4-4-4-4-4-------------------------|
                                  . . .   . .   . .   . .

Verse - Guitar 3
|-1----------------------------|
|-1----------------------------|
|-2--------------------------0-|
|-3--------------------------3-|
|-3--------------------------4-|
|-1--------------------------4-|
|----------------------------2-|

Guitar 2
|------------------------------|
|------------------------------|
|------------------------------|
|-3----------------------------|
|-x----------------------------|
|-1----------------------------|
|------------------------------|

|------------------------------|
|------------------------------|
|-0--------------------------0-|
|-5--------------------------7-|
|-6--------------------------8-|
|-6--------------------------8-|
|-4--------------------------6-|

|------------------------------|
|------------------------------|
|-0--------------------------0-|
|-3--------------------------5-|
|-4--------------------------6-|
|-4--------------------------6-|
|-2--------------------------4-|

Chorus - Guitars 1 & 2
|---------------------------------------|
|---------------------------------------|
|---------------------------------------|
|-3-----------3-------------------------|
|-3-----------3-----------4-----------4-|
|-1-----------1-----------4-----------4-|
|-------------------------2-----------2-|

|-------------------------------|
|-------------------------------|
|-------------------------------|
|-------------------------------|
|-6---------------------------6-|
|-6---------------------------6-|
|-4---------------------------4-|

Play Verse

Verse Ending - Guitars 1 & 2
|-----------------|
|-----------------|
|-----------------|
|-----------------|
|-6-6-6-6-6-6-6-6-|
|-6-6-6-6-6-6-6-6-|
|-4-4-4-4-4-4-4-4-|

Play Chorus

Interlude
|---------------------------------------------------|
|---------------------------------------------------|
|---------------------------------------------------|
|-3-3-3---3-3---3-3---3-3\--------------------------|
|-3-3-3---3-3---3-3---3-3\-4-4-4---4-4---4-4---4-4/-|
|-1-1-1---1-1---1-1---1-1\-4-4-4---4-4---4-4---4-4/-|
|--------------------------2-2-2---2-2---2-2---2-2/-|
  . . .   . .   . .   . .  . . .   . .   . .   . .

|-----------------------------------------------------------|
|-----------------------------------------------------------|
|-----------------------------------------------------------|
|---------------------------3-3-3-3-3-3-3-3-3-3-3-3-3-3-3-3-|
|-6-6-6---6-6---6-6---6-6---3-3-3-3-3-3-3-3-3-3-3-3-3-3-3-3-|
|-6-6-6---6-6---6-6---6-6---1-1-1-1-1-1-1-1-1-1-1-1-1-1-1-1-|
|-4-4-4---4-4---4-4---4-4-----------------------------------|
  . . .   . .   . .   . .   . . . . . . . . . . . . . . . .

Bridge - Guitar 1
|-------------------------------------------------------------------------------------------------|
|-------------------------------------------------------------------------------------------------|
|-------------------------------------------------------------------------------------------------|
|-15-15-15-15-15-15-15-13/15-13/15-15-15-15-15-15-15\13-13-13-13-13-13/17-17-17-17-17-17-17-17-17-|
|-x--x--x--x--x--x--x--x--x--x--x--x--x--x--x--x--x--x--x--x--x--x--x--x--x--x--x--x--x--x--x--x--|
|-13-13-13-13-13-13-13-11/13-11/13-13-13-13-13-13-13\11-11-11-11-11-11/15-15-15-15-15-15-15-15-15-|
|-------------------------------------------------------------------------------------------------|

Guitar 2
|-----------------------------------------------------------------|
|-----------------------------------------------------------------|
|-----------------------------------------------------------------|
|-3-3-3-3-3-3-3-3-3-3-3-3-3-3-3-3---------------------------------|
|-3-3-3-3-3-3-3-3-3-3-3-3-3-3-3-3-4-4-4-4-4-4-4-4-4-4-4-4-4-4-4-4-|
|-1-1-1-1-1-1-1-1-1-1-1-1-1-1-1-1-4-4-4-4-4-4-4-4-4-4-4-4-4-4-4-4-|
|---------------------------------2-2-2-2-2-2-2-2-2-2-2-2-2-2-2-2-|
  . . . . . . . . . . . . . . . .

|-------------------------------------------------------------------------------------------------|
|-------------------------------------------------------------------------------------------------|
|-------------------------------------------------------------------------------------------------|
|-17/18-18-18-18-17-17-17-17-15-15-15-15-13-13-13-13-15-15-15-15-15-15-13/15-13/15-15-15-15-15-15-|
|-x--x--x--x--x--x--x--x--x--x--x--x--x--x--x--x--x--x--x--x--x--x--x--x--x--x--x--x--x--x--x--x--|
|-15/16-16-16-16-15-15-15-15-13-13-13-13-11-11-11-11-13-13-13-13-13-13-11/13-11/13-13-13-13-13-13-|
|-------------------------------------------------------------------------------------------------|

|-----------------------------------------------------------------|
|-----------------------------------------------------------------|
|-----------------------------------------------------------------|
|---------------------------------3-3-3-3-3-3-3-3-3-3-3-3-3-3-3-3-|
|-4/6-6-6-6-6-6-6-6-6-6-6-6-6-6-6-3-3-3-3-3-3-3-3-3-3-3-3-3-3-3-3-|
|-4/6-6-6-6-6-6-6-6-6-6-6-6-6-6-6-1-1-1-1-1-1-1-1-1-1-1-1-1-1-1-1-|
|-2/4-4-4-4-4-4-4-4-4-4-4-4-4-4-4---------------------------------|
  . . . . . . . . . . . . . . . . . . . . . . . . . . . . . . . .

|-------------------------------------------------------------------------------------------------|
|-------------------------------------------------------------------------------------------------|
|-------------------------------------------------------------------------------------------------|
|-18-18-17-17-17\15-15-15-15-15-13-13-13-13-13-13-17/18-18-18-18-17-17-17-17-15-15-15-15-13-13-13-|
|-x--x--x--x--x--x--x--x--x--x--x--x--x--x--x--x--x--x--x--x--x--x--x--x--x--x--x--x--x--x--x--x--|
|-16-16-15-15-15\13-13-13-13-13-11-11-11-11-11-11-15/16-16-16-16-15-15-15-15-13-13-13-13-11-11-11-|
|-------------------------------------------------------------------------------------------------|

|-----------------------------------------------------------------|
|-----------------------------------------------------------------|
|-----------------------------------------------------------------|
|-----------------------------------------------------------------|
|-4-4-4-4-4-4-4-4-4-4-4-4-4-4-4-4-4/6-6-6-6-6-6-6-6-6-6-6-6-6-6-6-|
|-4-4-4-4-4-4-4-4-4-4-4-4-4-4-4-4-4/6-6-6-6-6-6-6-6-6-6-6-6-6-6-6-|
|-2-2-2-2-2-2-2-2-2-2-2-2-2-2-2-2-2/4-4-4-4-4-4-4-4-4-4-4-4-4-4-4-|
  . . . . . . . . . . . . . . . . . . . . . . . . . . . . . . . .

|-------------------------------------------------------------------------------------------------|
|-------------------------------------------------------------------------------------------------|
|-------------------------------------------------------------------------------------------------|
|-18-18-18-18-18-18-18-18-18\17-17-17-17-17-17-17-17/18-18-18-18-17-17-17-17-15-15-15-15-13-13-13-|
|-x--x--x--x--x--x--x--x--x--x--x--x--x--x--x--x--x--x--x--x--x--x--x--x--x--x--x--x--x--x--x--x--|
|-16-16-16-16-16-16-16-16-16\15-15-15-15-15-15-15-15/16-16-16-16-15-15-15-15-13-13-13-13-11-11-11-|
|-------------------------------------------------------------------------------------------------|

|-----------------------------------------------------------------|
|-----------------------------------------------------------------|
|-----------------------------------------------------------------|
|-----------------------------------------------------------------|
|-4-4-4-4-4-4-4-4-4-4-4-4-4-4-4-4-4/6-6-6-6-6-6-6-6-6-6-6-6-6-6-6-|
|-4-4-4-4-4-4-4-4-4-4-4-4-4-4-4-4-4/6-6-6-6-6-6-6-6-6-6-6-6-6-6-6-|
|-2-2-2-2-2-2-2-2-2-2-2-2-2-2-2-2-2/4-4-4-4-4-4-4-4-4-4-4-4-4-4-4-|
  . . . . . . . . . . . . . . . . . . . . . . . . . . . . . . . .

|-------------------------------------------------------------------------------------------------|
|-------------------------------------------------------------------------------------------------|
|-------------------------------------------------------------------------------------------------|
|-13-15-15-15-15-15-15-13/15-13/15-15-15-15-15-15-15\13-13-13-13-13-13/17-17-17-17-17-17-17-17-17-|
|-x--x--x--x--x--x--x--x--x--x--x--x--x--x--x--x--x--x--x--x--x--x--x--x--x--x--x--x--x--x--x--x--|
|-11-13-13-13-13-13-13-11/13-11/13-13-13-13-13-13-13\11-11-11-11-11-11/15-15-15-15-15-15-15-15-15-|
|-------------------------------------------------------------------------------------------------|

|-----------------------------------------------------------------|
|-----------------------------------------------------------------|
|-----------------------------------------------------------------|
|-3-3-3-3-3-3-3-3-3-3-3-3-3-3-3-3---------------------------------|
|-3-3-3-3-3-3-3-3-3-3-3-3-3-3-3-3-4-4-4-4-4-4-4-4-4-4-4-4-4-4-4-4-|
|-1-1-1-1-1-1-1-1-1-1-1-1-1-1-1-1-4-4-4-4-4-4-4-4-4-4-4-4-4-4-4-4-|
|---------------------------------2-2-2-2-2-2-2-2-2-2-2-2-2-2-2-2-|
  . . . . . . . . . . . . . . . . . . . . . . . . . . . . . . . .

|-------------------------------------------------|
|-------------------------------------------------|
|-------------------------------------------------|
|-17/18--18--18--18--17--17--17-------------------|
|-x--x---x---x---x---x---x---x---6--6--6--6--6--6-|
|-15/16--16--16--16--15--15--15--6--6--6--6--6--6-|
|--------------------------------4--4--4--4--4--4-|
                                 .  .  .  .  .  .

|-----------------------------------------|
|-----------------------------------------|
|-----------------------------------------|
|-----------------------------------------|
|-4/6--6--6--6--6--6--6--6--6--6--6--6--6-|
|-4/6--6--6--6--6--6--6--6--6--6--6--6--6-|
|-2/4--4--4--4--4--4--4--4--4--4--4--4--4-|
  . .  .  .  .  .  .  .  .  .  .  .  .  .

Play Verse w/ Verse Ending

Play Chorus

Guitar 1
|--------------------------------------|
|--------------------------------------|
|--------------------------------------|
|-3-3-3---3-3---3-3---3-3--------------|
|-3-3-3---3-3---3-3---3-3---4--------4-|
|-1-1-1---1-1---1-1---1-1---4--------4-|
|---------------------------2--------2-|
  . . .   . .   . .   . .

Guitar 2
|-------------------------------------|
|-------------------------------------|
|-------------------------------------|
|-3-----------3-----------------------|
|-3-----------3---------4-----------4-|
|-1-----------1---------4-----------4-|
|-----------------------2-----------2-|

Guitars 1 & 2
|---------------------------|
|---------------------------|
|---------------------------|
|---------------------------|
|-6-----------------------6-|
|-6-----------------------6-|
|-4-----------------------4-|

Guitar 1
|-----------------------------------------------------------|
|-----------------------------------------------------------|
|-----------------------------------------------------------|
|-3-3-3---3-3---3-3---3-3-----------------------------------|
|-3-3-3---3-3---3-3---3-3---4-4-4-4-4-4-4-4-4-4-4-4-4-4-4-4-|
|-1-1-1---1-1---1-1---1-1---4-4-4-4-4-4-4-4-4-4-4-4-4-4-4-4-|
|---------------------------2-2-2-2-2-2-2-2-2-2-2-2-2-2-2-2-|
  . . .   . .   . .   . .   . . . . . . . . . . . . . . . .

Guitar 2
|--------------------------------------|
|--------------------------------------|
|--------------------------------------|
|-3----------3-------------------------|
|-3----------3----------4------------4-|
|-1----------1----------4------------4-|
|-----------------------2------------2-|

|---------------|
|---------------|
|---------------|
|---------3-----|
|-4-6-----3-x16-|   w/palm mute
|-4-6-x16-1-----|
|-2-4-----------|

|-------------------------------------|
|-------------------------------------|
|-------------------------------------|
|----------------------3------------3-|
|-6---------6----------3------------3-|
|-6---------6----------1------------1-|
|-4---------4-------------------------|

|---------------|
|---------------|
|---------------|
|-3-------------|
|-3-4-----6-----|   w/palm mute
|-1-4-x16-6-x16-|
|---2-----4-----|

|----------------------------------|
|----------------------------------|
|----------------------------------|
|----------------------------------|
|-4---------4----------6---------6-|
|-4---------4----------6---------6-|
|-2---------2----------4---------4-|

Guitars 1 & 2 play Chorus

End With
|-------------------------------------|
|-------------------------------------|
|-------------------------------------|
|-3-----------------------------------|
|-3-----------------------------------|
|-1-----------------------------------|
|-------------------------------------|

As you see, I started to get lazy towards the end.





Comments


Popular Mushroomhead tabs & chords
Before I Die 1 Bass Tabs
Dream Is Over Bass Tabs
Almost Gone 3 Tabs
Bwomp Tabs
Bwomp 2 Tabs
Empty Spaces Tabs
Our Own Way 1 Tabs
Simpleton Tabs
Solitaire/Unraveling 2 Tabs
Sun Doesnt Rise Tabs


Song lyrics



↑ Back to top | Tablatures and chords are parodies/interpretations of the original songs. You may use it for private study, scholarship, research or language learning purposes only
© 2014 AZChords.com Contact us | Privacy policy | DMCA | Add/correct tabs | Request tabs | Top 50 tabs