» » »

Eternal Bass tabs (ver.1)

Artists:  A B C D E F G H I J K L M N O P Q R S T U V W X Y Z # 

Eternal Bass tabs (ver.1)

Mushroomhead
Rating:
0/5 (0 votes)

Tabs too difficult? Try these video lessons and learn fast.
                Riff 1 :
[------------------------------------]
[------------------------------------]
[------------------------------------]
[-------9-000000000------------------]

Riff 2 :
[------------------------------------]
[------------------------------------]
[------------------------------------]
[--------00000-----------------------]

Riff 3 :
[-----------------------------------]
[-----------------------------------]
[-----------------------------------]
[---000111113333300000--------------]

Riff 4 :
[------------------------------------]
[------------------------------------]
[------------------------------------]
[--------------0---------------------]

Riff 5 :
[------------------------------------]
[------------------------------------]
[------------------------------------]
[-------00-0-0-0---------------------]

Riff 6 :
[------------------------------------]
[------------------------------------]
[------------------------------------]
[-----7-578-757875-------------------]

Riff 7 :
[------------------------------------]
[------------------------------------]
[------------------------------------]
[---00-000---------------------------]

Riff 8 :
[------------------------------------]
[------------------------------------]
[------------------------------------]
[------6-----------------------------]
Order :

Riff 1 : x4
Riff 2 : x3
Riff 3 : x1
Riff 2 : x3
Riff 3 : x1
Riff 2 : x3
Riff 3 : x1
Riff 2 : x3
Riff 4 : x1
Riff 5 : x8
Riff 6 : x3
Riff 4 : xA lot
Riff 6 : x8
Riff 7 : x8
Riff 8 : x4
Riff 1 : x8
Riff 6 : x16



sorry for all the riff 1, riff 2 cr*p
	
            
Tabs too difficult? Try these video lessons and learn fast.




comments powered by Disqus
↑ Back to top | Tablatures and chords are parodies/interpretations of the original songs. You may use it for private study, scholarship, research or language learning purposes only