» » »

Mushroomhead, Episode Tabs (ver.5)

Artists:  A B C D E F G H I J K L M N O P Q R S T U V W X Y Z # 

Episode Tabs (ver.5)

Mushroomhead Tabs
 Rating:
4/5 (4 votes)
Episode lessons Tabs too difficult? Try these video lessons and learn fast
                "(9)


Section A
e|13--------------------------------------------------------------------------|
B|17----------X4--------------------------------------------------------------|
F#|---------------------------------------------------------------------------|
C#|---------------------------------------------------------------------------|
G#|---------------------------------------------------------------------------|
C#|---------------------------------------------------------------------------|

Section B
e|------------------------------------------------------------------------------|
B|------------------------------------------------------------------------------|
F#|----3---------------3--------------------------------------------------------|
C#|0---3-3-2--------0--3-3------------------------------------------------------|
G#|0---1-3-2--------0--1-3------------------------------------------------------|
C#|0-----3-2--------0----3------------------------------------------------------|

Section C
e|------------------------------------------------------------------------------|
B|------------------------------------------------------------------------------|
F#|----------------------------3------------------------------------------------|
C#|0---------------------------3--3--2------------------------------------------|
G#|0---------------------------1--3--2------------------------------------------|
C#|0-0-0-0-0-0-000-0-0-0-0-0-0----3--2------------------------------------------|

Section D
e|------------------------------------------------------------------------------|
B|------------------------------------------------------------------------------|
F#|-----------------------------------------------------------------------------|
C#|-----------------------------------------------------------------------------|
G#|-----------------------------------------------------------------------------|
C#|1p0-000-1p0-3-6-0-0-000-3-6-1---1p0-000-1p0-3-6-00-00-0000-00-00-------------|

Section A a bunch

Section E
e|------------------------------------------------------------------------------|
B|------------------------------------------------------------------------------|
F#|---------------------------3-------------------------------------------------|
C#|0--------------------------3-3--2--------------------------------------------|
G#|0--------------------------1-3--2--------------------------------------------|
C#|0-0-0-0-0-0-000-0-0-000-000--3--2--------------------------------------------|

Section D a few times

end with
e|------------------------------------------------------------------------------|
B|------------------------------------------------------------------------------|
F#|-----------------------------------------------------------------------------|
C#|-----------------------------------------------------------------------------|
G#|-----------------------------------------------------------------------------|
C#|1p0-000-1p0-3-6-0-0-000-3-6-1---1p0-000-1p0-3-6------------------------------|
"            
Submit corrections

comments powered by Disqus
↑ Back to top | Mushroomhead Tabs for Episode. Lyrics for acoustic guitar and electric guitar. Tablatures and chords are parodies/interpretations of the original songs. You may use it for private study, scholarship, research or language learning purposes only