» » »

Mushroomhead, Episode Tabs (ver.4)

Artists:  A B C D E F G H I J K L M N O P Q R S T U V W X Y Z # 

Episode Tabs (ver.4)

Mushroomhead Tabs
 Rating:
4.3/5 (6 votes)
Episode lessons Tabs too difficult? Try these video lessons and learn fast
1
                "(9)
 Band: Mushroomhead
 
Legend:
     / = slide to the next fret or note   
     x = mute out [dont let note(s) ring]

|---------------------------|
|---------------------------|
|---------------------------|
|-----0--8-3--2----0--8-3---| X1
|-----0--8-3--2----0--8-3---|
|-----0--8-3--2----0--8-3---|

|--------------------------------|
|--------------------------------|
|--------------------------------|
|--3-2-00-3-2-00--3-0-0-0-3/5--3-| X1
|--3-2-00-3-2-00--3-0-0-0-3/5--3-|
|--3-2-00-3-2-00--3-0-0-0-3/5--3-|

|------------------------------------|
|------------------------------------|
|------------------------------------|
|-3-2-00-3-2-00--3-0-0-0-3/5---------| X1
|-3-2-00-3-2-00--3-0-0-0-3/5---------|
|-3-2-00-3-2-00--3-0-0-0-3/5---------|


|------------------------|----------------------|
|------------------------|----------------------|
|------------------------|----------------------|
|3-2-00-3-2-0-6---00-00-0|3-2-00-3-2-06----0-0--| X1
|3-2-00-3-2-0-6-0-00-00-0|3-2-00-3-2-06-00-0-0-0|
|3-2-00-3-2-0-6-0-00-00-0|3-2-00-3-2-06-00-0-0-0|

|--------------------------|
|--------------------------|
|--------------------------|
|----00-3-2---6--00-------0| X1
|3-2-00-3-2-0-60-00-00-00-0|
|3-2-00-3-2-0-60-00-00-00-0|

|--------------------------|--------------------------|
|--------------------------|--------------------------|
|--------------------------|--------------------------|
|3-2-00-3-2-0-6---00-00-0--|----00-3-2---6--00-------0| X2 
|3-2-00-3-2-0-6-0-00-00-0-0|3-2-00-3-2-0-60-00-00-00-0|
|3-2-00-3-2-0-6-0-00-00-0-0|3-2-00-3-2-0-60-00-00-00-0|

|--------------------------|
|--------------------------|
|--------------------------|
|3-2-00-3-2-0-6---00-00-0--| X1
|3-2-00-3-2-0-6-0-00-00-0-0|
|3-2-00-3-2-0-6-0-00-00-0-0|

|---------|----------|
|---------|----------|
|---------|----------|
|---8-3---|-----8-3--| X1
|0--8-3--2|-0---8-3-2|
|0--8-3--2|-0---8-3-2|

|----------------------|----------------------------|
|----------------------|----------------------------|
|----------------------|----------------------------|
|6----0--00---0-32----5|--6----0--00---0-32----5---0| X1
|6-00-00-00-000-32----5|--6-00-00-00-000-32----5---0|
|6-00-00-00-000-32----5|--6-00-00-00-000-32----5---0|


|---------------------------|
|---------------------------|
|---------------------------|
|----00-3-2-0-----00-00-0---| X5
|3-2-00-3-2-0-6-0-00-00-0-0x|
|3-2-00-3-2-0-6-0-00-00-0-0x|
"            
Submit corrections

comments powered by Disqus
↑ Back to top | Mushroomhead Tabs for Episode. Lyrics for acoustic guitar and electric guitar. 1 Tablatures and chords are parodies/interpretations of the original songs. You may use it for private study, scholarship, research or language learning purposes only