» » »

Embrace The Ending Bass tabs (ver.1)

Artists:  A B C D E F G H I J K L M N O P Q R S T U V W X Y Z # 

Embrace The Ending Bass tabs (ver.1)

Mushroomhead
Rating:
0/5 (0 votes)

Hard to play? Try these video lessons and learn fast.
                I Love this song and I thought y not tab it for the rest of the world. So here it is

d[---------------7-------------]
g[-8-6-5---8-6-5---------------]
a[-------7---------------------]
e[-----------------------------]

d[-8-6-5-----------------------]
g[-------7---6-8-6-5-----------]
a[---------7-------------------]
e[-----------------------------]

d[---------8-6-7-5-------------]
g[-5757------------------------]
a[------5~---------------------]
e[-----------------------------]

d[------------8-6-7-5----------]
g[-5757---576------------------]
a[------5----------------------]
e[-----------------------------]
Well there you go. it is an easy song, just keep playing the rifs over and over again. PEACE!
            
Hard to play? Try these video lessons and learn fast. | Correct




comments powered by Disqus
↑ Back to top | Tablatures and chords are parodies/interpretations of the original songs. You may use it for private study, scholarship, research or language learning purposes only