>
 >
Destroying The World Around Me

Destroying The World Around Me Guitar Tabs

Mushroomhead - Destroying The World Around Me chords, tabs, tablatures, lyrics

Guitar lessons | Add/correct | Request | Top 50 tabs Artists:  A B C D E F G H I J K L M N O P Q R S T U V W X Y Z 0-9

Destroying The World Around Me Guitar Tabs – Mushroomhead

CD, Sheet music, Poster

Do you like Destroying The World Around Me? Share with your friends now
Bass TabsTabs
Band- Mushroomhead
Song- Destroying The World Around Me

pm = palm mute
 = slide down


RIF A
E||----------------------------------------------|
B||----------------------------------------------|
G||----------------------------------------------|
D||----------------------------------------------|
A||2---2---3---4---4---5---6---4---5---6---4---5-|
E||2---2---3---4---4---5---6---4---5---6---4---5-|

RIF B
E||--------|
B||--------|
G||--------|
D||--------|
A||2-2-2-2-|
E||2-2-2-2-|
pm . . . .

RIF C
E||-
B||-
G||-
D||0
A||0
E||0

RIF D
E||----------------|
B||----------------|
G||----------------|
D||----------------|
A||2-2-2-2-3-3-3-3-|
E||2-2-2-2-3-3-3-3-|
pm . . . . . . . .

RIF E
E||-----
B||-----
G||-----
D||1-2-0
A||1-2-0
E||1-2-0

chorus
E||-
B||-
G||-
D||2
A||2
E||2

Chorus cont
E||-----
B||-----
G||-----
D||1-2-0
A||1-2-0
E||1-2-0

chorus cont again
E||-----
B||-----
G||-----
D||21-2
A||21-2
E||21-2

RIF F
E||-----
B||-----
G||-----
D||1-2-0
A||1-2-0
E||1-2-0

Bridge
E||------|
B||------|
G||------|
D||------|
A||2-2---|
E||2-2---|
pm . .

ending
E||--------------|
B||--------------|
G||--------------|
D||----------1-2-|
A||2-2-2-2-2-1-2-|
E||2-2-2-2-2-1-2-|


Rif A - 1
Rif B - 10
rif C - 1
Rif D - 7
rif C - 1
Rif D - 7
Rif B - 8
rif C - 1
Rif D - 7
rif C - 1
Rif D - 7
Chorus - until it ends
Rif f - until you can hear the bridge
bridge - 23
ending - 6
bridge - 1





Comments


Popular Mushroomhead tabs & chords
Sun Doesn`T Rise Bass Tabs
2nd Thoughts Tabs
Chancre Sore Tabs
Just Pretending Tabs
Kill Tomorrow 2 Tabs
Never Let It Go Tabs
Simpleton Tabs
Solitaire Unraveling Tabs
War Inside 1 Tabs
Xeroxed 3 Tabs


Song lyrics



↑ Back to top | Tablatures and chords are parodies/interpretations of the original songs. You may use it for private study, scholarship, research or language learning purposes only
© 2014 AZChords.com Contact us | Privacy policy | DMCA | Add/correct tabs | Request tabs | Top 50 tabs