» » »

Crazy Bass tabs (ver.2)

Artists:  A B C D E F G H I J K L M N O P Q R S T U V W X Y Z # 

Crazy Bass tabs (ver.2)

Mushroomhead
Rating:
0/5 (0 votes)

Tabs too difficult? Try these video lessons and learn fast.
                Crazy (hidden track on the song Thirteen) - XIII - Mushroomhead

This song is pretty insane and sounds really good if you improv alot in it

Intro:
G|------------------------------------|
D|------------------------------------|
A|------------------------------------|
E|-0--0-----3--3-----5--5---------7\--|

Verse:
G|----------------------------------------------------|
D|----------------------------------------------------|
A|----------------------------------------------------|
E|-0-0--0-0-0---0-3--3-3-3---3-5--5-5-5---5-7-7-7-7\--|

Chorus:
G|-----------------------------------|----------------------------|
D|----------------------------------------------------------------|
A|----------------------------------------------------------------|
E|-0-0-0-0-0-0-0-0-3-3-3-3-3-3-3-3-3-5-5-5-5-5-5-5-5-5-7-7-7-7-7--|


Ending:
G|------------------------------------|
D|------------------------------------|
A|------------------------------------|
E|-0-0---0--0-0---0--0-0---0--0-0--3--|


You can play lots of variations of the verse riff, here are some cool ones

Variation 1:
G|-------------------------------------|
D|-------------------------------------|
A|-------------------------------------|
E|-00-000-033-0303-355-3535-577777\/\--|

Varitation 2:
G|-----------------------------------------------------|
D|-----------------------------------------------------|
A|-----------------------------------------------------|
E|-0-0--0-0-0---3-3--3-3-3---5-5--5-5-5---7-7-7-7-7\*--|
                                              *really slow slide*

you can really do lots of crazy things in this song, great way to practice your 
skills. please rate!


(sorry if theres one exactly like this, both are mine just one is unregistered)
            
Tabs too difficult? Try these video lessons and learn fast.


comments powered by Disqus
↑ Back to top | Tablatures and chords are parodies/interpretations of the original songs. You may use it for private study, scholarship, research or language learning purposes only