» » »

Crazy Tabs (ver.1)

Artists:  A B C D E F G H I J K L M N O P Q R S T U V W X Y Z # 

Crazy Tabs (ver.1)

Mushroomhead
Rating:
3/5 (9 votes)

Tabs too difficult? Try these video lessons and learn fast.
                By Mushroomhead
Album XIII

Intro-
E----------------------
B----------------------
G----------------------
D-xx—xx—xxxx—xx—xx—xxxx- x2
A-xx—xx—xxxx—xx—xx—xxxx-
D-xx—xx—xxxx—xx—xx—xxxx-

E------------------------------------------
B------------------------------------------
G-4-------7----------9-----------9---------
D-2-------5----------7-----------7---------
A-2-------5----------7-----------7---------
D-2-------5----------7-----------7---------

Riff 1
E------------------------------------
B------------------------------------
G-4--------7----------9-------------- x2
D-2--------5----------7--------------
A------------------------------------
D------------------------------------

Riff 2
E----------------------------------------------------------
B----------------------------------------------------------
G----------------------------------------------------------
D-2-2----2-2---5-5-----5-5----7-7-----7-7-----7-7------7-7-
A-2-2----2-2---5-5-----5-5----7-7-----7-7-----7-7------7-7- x2
D-2-2----2-2---5-5-----5-5----7-7-----7-7-----7-7------7-7-

E------------------------------------------------------------------------
B------------------------------------------------------------------------
G------------------------------------------------------------------------
D-2-2—2222—2-2-2222—5-5-5555-5-5-5555—7-7—7777—7-7-7777-7-7-7777-7-7-7777
A-2-2—2222—2-2-2222—5-5-5555-5-5-5555—7-7—7777—7-7-7777-7-7-7777-7-7-7777 x2
D-2-2—2222—2-2-2222—5-5-5555-5-5-5555—7-7—7777—7-7-7777-7-7-7777-7-7-7777
PM    ----     ----     ----     ----     ----     ----     ----     ----

Chorus
E------------------------------------------------------------------------
B------------------------------------------------------------------------
G-5-5-5-5-5-5-5-5--------------------------------------------------------
D-5-5-5-5-5-5-5-5--5-5-5-5-5-5-5-5--xxxx12-xxxx12-xxxx12-xxxx12---------- x2
A-3-3-3-3-3-3-3-3--5-5-5-5-5-5-5-5--xxxx12-xxxx12-xxxx12-xxxx12----------
D------------------5-5-5-5-5-5-5-5--xxxx12-xxxx12-xxxx12-xxxx12----------

Riff 1 again
Riff 2 again
Chorus again

intro again
Riff 2 again

2nd Chorus
E--------------------------------------------------------------------------------
B--------------------------------------------------------------------------------
G-5-5-5-5-5-5-5-5----------------------------------------------------------------
D-5-5-5-5-5-5-5-5--5-5-5-5-5-5-5-5--12121212121212121212121212121212------------- x4
A-3-3-3-3-3-3-3-3--5-5-5-5-5-5-5-5--12121212121212121212121212121212-------------
D------------------5-5-5-5-5-5-5-5--12121212121212121212121212121212-------------
                                   (These are 12's not 1 2 1 2 1 2 1 2)

Outro
E---------------------------------------------
B---------------------------------------------
G---------------------------------------------
D--2-2--2-2--2-2--2-2-1--2-2--2-2--2-2--2-2-1-
A--2-2--2-2--2-2--2-2-1--2-2--2-2--2-2--2-2-1-
D--2-2--2-2--2-2--2-2-1--2-2--2-2--2-2--2-2-1-

E--------------------------------------------------------------------
B--------------------------------------------------------------------
G--------------------------------------------------------------------
D--2-2-xx-x-2-2-xx-x-2-2-xx-x-2-2-1--2-2-xx-x-2-2-xx-x-2-2-xx-x-2-2-1
A--2-2-xx-x-2-2-xx-x-2-2-xx-x-2-2-1--2-2-xx-x-2-2-xx-x-2-2-xx-x-2-2-1
D--2-2-xx-x-2-2-xx-x-2-2-xx-x-2-2-1--2-2-xx-x-2-2-xx-x-2-2-xx-x-2-2-1

Now if you don't have them new album XIII, go get it now! You don't know what you are
            
Tabs too difficult? Try these video lessons and learn fast.




comments powered by Disqus
↑ Back to top | Tablatures and chords are parodies/interpretations of the original songs. You may use it for private study, scholarship, research or language learning purposes only