» » »

Born Of Desire Tabs (ver.1)

Artists:  A B C D E F G H I J K L M N O P Q R S T U V W X Y Z # 

Born Of Desire Tabs (ver.1)

Mushroomhead
Rating:
4/5 (3 votes)

Hard to play? Try these video lessons and learn fast.
                Born of Desire from Mushroomhead
Tuning: drop D 7 string AEADGBe but 7 string isn't needed.

Note: like many Mushroomhead songs, there are breaks all over the place, and the timing 
get odd, so make sure to listen to the song well.

Intro x2 (skip the 2 with the bends and releases the second time)
-------------------------------------|
-------------------------------------|
-------------------------------------|
-------------------------------------|
-------------------------------------|
------22--8~------22-----------------|
-22-2-22-----22-2-22--2brbrbrbrbrbr--|
    .           .
Verse(make sure to release that bend very slowly, the timing of this riff is weird, and 
only done once. I broke it into sections for a reason, you'll see later)
-------------------------|
-------------------------|
-------------------------|
-------------------------|
-------------------------|
-------22----222-22-2-2--|
-2br---22----222-22-2-2--|
             ... .. . .
---------------------------|
---------------------------|
---------------------------|
---------------------------|
---------------------------|
-22---22-------------------|
-22---22---(volume swell)--|

Chorus x2(I broke it into sections for a reason, you'll see later)
-----------------|
-----------------|
-----------------|
-----------------|
-22-222-222-222--|
-22-222-222-222--|
-22-222-222-222--|

--------------------|
--------------------|
--------------------|
--------------------|
-222-222-222-222-5--|
-222-222-222-222-3--|
-222-222-222-222----|

-play first line of verse

Chorus (altered)
Play the chorus twice, but the second time replace the second line with:
----------------------|
----------------------|
----------------------|
----------------------|
-222-222-222-2-2-2-2--|
-222-222-222-2-2-2-2--|
-222-222-222-2-2-2-2--|
               . . .
Interlude 1 x2
------------------------------------------|
------------------------------------------|
------------------------------------------|
------------------------------------------|
-----5---------5---------5---------5-555--|
-320-3-320-320-3-320-320-3-320-320-3-333--|
-320---320-320---320-320---320-320--------|
 ...   ... ...   ... ...   ... ...
-play verse
-play chorus(altered version)
-play Interlude 1

Interlude 2 (this is repeated a lot, you can count the amount of times)
--------|
--------|
--------|
--------|
--------|
-22222--|
-22222--|
 .....
-play intro

Last verse x4
---------------|
---------------|
---------------|
---------------|
-5~-6/4-5~-4~--|
-3~-4/2-3~-2~--|
---------------|

-play Chorus x2 (full chorus and not the altered version)

End on:
---------|
---------|
---------|
---------|
-22-222--|
-22-222--|
-22-222--|
            
Hard to play? Try these video lessons and learn fast. | Correct




comments powered by Disqus
↑ Back to top | Tablatures and chords are parodies/interpretations of the original songs. You may use it for private study, scholarship, research or language learning purposes only