» » »

Mushroomhead, 12 Hundred Tabs (ver.4)

Artists:  A B C D E F G H I J K L M N O P Q R S T U V W X Y Z # 

12 Hundred Tabs (ver.4)

Mushroomhead Tabs
Rating:
4/5 (2 votes)
12 Hundred lessons Tabs too difficult? Try these video lessons and learn fast
                Drop d - eBGDAD
'This is my first tab'


'Intro': Play 1 time
on the 4 do a pinch harmonic and add vibrato
do hot pick the notes in ()

(Time(0.00))
e|---------|
B|---------|
G|---------|
D|--4-4\(2)|
A|----4\(2)|
D|----4\(2)|


'Main Riff': Play 3 times
Where the (X)'s are you're muting the 1 from ringing

(Time(0.02))
e|--------------------|
B|--------------------|
G|--------------------|
D|-1-2-1-(X)-1-(X)-1--|(X)
A|-1-2-1-(X)-1-(X)-1--|(X)
D|-1-2-1-(X)-1-(X)-1--|(X)

'Main Riff With Change 1': Play 1 time

(Time(0.08))
e|---------------|
B|---------------|
G|---------------|
D|-1-2-1-(X)-1/5-|
A|-1-2-1-(X)-1/5-|
D|-1-2-1-(X)-1/5-|

'Main Riff': Play 3 times

(Time(0.10))
e|--------------------|
B|--------------------|
G|--------------------|
D|-1-2-1-(X)-1-(X)-1--|(X)
A|-1-2-1-(X)-1-(X)-1--|(X)
D|-1-2-1-(X)-1-(X)-1--|(X)

'Main Riff With Change 2': Play 1 time

(Time(0.16))
e|-----------------|
B|-----------------|
G|-----------------|
D|-1-2-1-3-2-1-2-3-|
A|-1-2-1-3-2-1-2-3-|
D|-1-2-1-3-2-1-2-3-|

'Main Riff': Play 3 times

(Time(0.18))
e|--------------------|
B|--------------------|
G|--------------------|
D|-1-2-1-(X)-1-(X)-1--|(X)
A|-1-2-1-(X)-1-(X)-1--|(X)
D|-1-2-1-(X)-1-(X)-1--|(X)

'Main Riff With Change 2': Play 1 time

(Time(0.24))
e|-----------------|
B|-----------------|
G|-----------------|
D|-1-2-1-3-2-1-2-3-|
A|-1-2-1-3-2-1-2-3-|
D|-1-2-1-3-2-1-2-3-|

'Main Riff': Play 3 times

(Time(0.26))
e|--------------------|
B|--------------------|
G|--------------------|
D|-1-2-1-(X)-1-(X)-1--|(X)
A|-1-2-1-(X)-1-(X)-1--|(X)
D|-1-2-1-(X)-1-(X)-1--|(X)

'Main Riff With Change 2': Play 1 time

(Time(0.32))
e|-----------------|
B|-----------------|
G|-----------------|
D|-1-2-1-3-2-1-2-3-|
A|-1-2-1-3-2-1-2-3-|
D|-1-2-1-3-2-1-2-3-|

'Main Riff': Play 3 times

(Time(0.34))
e|--------------------|
B|--------------------|
G|--------------------|
D|-1-2-1-(X)-1-(X)-1--|(X)
A|-1-2-1-(X)-1-(X)-1--|(X)
D|-1-2-1-(X)-1-(X)-1--|(X)

'Main Riff With Change 2': Play 1 time

(Time(0.40))
e|-----------------|
B|-----------------|
G|-----------------|
D|-1-2-1-3-2-1-2-3-|
A|-1-2-1-3-2-1-2-3-|
D|-1-2-1-3-2-1-2-3-|

'Main Riff': Play 3 times

(Time(0.43))
e|--------------------|
B|--------------------|
G|--------------------|
D|-1-2-1-(X)-1-(X)-1--|(X)
A|-1-2-1-(X)-1-(X)-1--|(X)
D|-1-2-1-(X)-1-(X)-1--|(X)

'Main Riff With Change 2': Play 1 time

(Time(0.49))
e|-----------------|
B|-----------------|
G|-----------------|
D|-1-2-1-3-2-1-2-3-|
A|-1-2-1-3-2-1-2-3-|
D|-1-2-1-3-2-1-2-3-|

'Pre-Chorus': Play 3 times
Timing is hard to get in this part
There may be more or less zeros than appear
just get the timing

(Time(0.51))
P.M...................
e|---------------------------------|
B|---------------------------------|
G|---------------------------------|
D|---------------------1h2-1h2-2-1-|
A|---------------------1h2-1h2-2-1-|
D|-0-0-0-0-0-0-0-0-0-0-1h2-1h2-2-1-|

'Pre-Chorus with change': Play 1 time

(Time(1.02))
P.M...................
e|-------------------------------|
B|-------------------------------|
G|-------------------------------|
D|---------------------1h2-1h2/0-|
A|---------------------1h2-1h2/0-|
D|-0-0-0-0-0-0-0-0-0-0-1h2-1h2/0-|

'Chorus': Play 6 times
Your cutting/muting the 3 where the X's are, So fast upstroke and downstroke
(Time(1.07))
e|--------------------------------------------------------|
B|--------------------------------------------------------|
G|--------------------------------------------------------|
D|-0-3-0-3-0-3-0-3-0-3-XX-0-3-0-3-0-3---------------------|
A|-0-3-0-3-0-3-0-3-0-3-XX-0-3-0-3-0-3-3/(5)\(3)-3---------|(5)\(3)
D|-0-3-0-3-0-3-0-3-0-3-XX-0-3-0-3-0-3---------------------|

'Pre-Chorus': Play 3 times

(Time(1.31))
P.M...................
e|---------------------------------|
B|---------------------------------|
G|---------------------------------|
D|---------------------1h2-1h2-2-1-|
A|---------------------1h2-1h2-2-1-|
D|-0-0-0-0-0-0-0-0-0-0-1h2-1h2-2-1-|

'Pre-Chorus with change 2': Play 1 time

(Time(1.43))
P.M...................
e|-----------------------------|
B|-----------------------------|
G|-----------------------------|
D|---------------------1h2-1h2-|
A|---------------------1h2-1h2-|
D|-0-0-0-0-0-0-0-0-0-0-1h2-1h2-|

'Main Riff': Play 3 times

(Time(1.47))
e|--------------------|
B|--------------------|
G|--------------------|
D|-1-2-1-(X)-1-(X)-1--|(X)
A|-1-2-1-(X)-1-(X)-1--|(X)
D|-1-2-1-(X)-1-(X)-1--|(X)

'Main Riff With Change 2': Play 1 time

(Time(1.53))
e|-----------------|
B|-----------------|
G|-----------------|
D|-1-2-1-3-2-1-2-3-|
A|-1-2-1-3-2-1-2-3-|
D|-1-2-1-3-2-1-2-3-|

'Main Riff': Play 3 times

(Time(1.56))
e|--------------------|
B|--------------------|
G|--------------------|
D|-1-2-1-(X)-1-(X)-1--|(X)
A|-1-2-1-(X)-1-(X)-1--|(X)
D|-1-2-1-(X)-1-(X)-1--|(X)

'Main Riff With Change 2': Play 1 time

(Time(2.01))
e|-----------------|
B|-----------------|
G|-----------------|
D|-1-2-1-3-2-1-2-3-|
A|-1-2-1-3-2-1-2-3-|
D|-1-2-1-3-2-1-2-3-|

'Main Riff': Play 3 times

(Time(2.03))
e|--------------------|
B|--------------------|
G|--------------------|
D|-1-2-1-(X)-1-(X)-1--|(X)
A|-1-2-1-(X)-1-(X)-1--|(X)
D|-1-2-1-(X)-1-(X)-1--|(X)

'Main Riff With Change 2': Play 1 time

(Time(2.10))
e|-----------------|
B|-----------------|
G|-----------------|
D|-1-2-1-3-2-1-2-3-|
A|-1-2-1-3-2-1-2-3-|
D|-1-2-1-3-2-1-2-3-|

'Pre-Riff Before verse": Play 1 time

(Time(2.12))
e|---------|
B|---------|
G|---------|
D|--4-4\(2)|
A|----4\(2)|
D|----4\(2)|

'Main Riff': Play 3 times

(Time(2.13))
e|--------------------|
B|--------------------|
G|--------------------|
D|-1-2-1-(X)-1-(X)-1--|(X)
A|-1-2-1-(X)-1-(X)-1--|(X)
D|-1-2-1-(X)-1-(X)-1--|(X)

'Main Riff with Pre Riff': Play 1 time
 on the 4 do a pinch harmonic and add vibrato

(Time(2.19))
e|----------------|
B|----------------|
G|----------------|
D|-1-2-1-(x)-4-4\-|(2)
A|-1-2-1-(x)---4\-|(2)
D|-1-2-1-(X)---4\-|(2)

'Main Riff': Play 3 times

(Time(2.21))
e|--------------------|
B|--------------------|
G|--------------------|
D|-1-2-1-(X)-1-(X)-1--|(X)
A|-1-2-1-(X)-1-(X)-1--|(X)
D|-1-2-1-(X)-1-(X)-1--|(X)

'Main Riff with Pre Riff': Play 1 time

(Time(2.27))
e|----------------|
B|----------------|
G|----------------|
D|-1-2-1-(x)-4-4\-|(2)
A|-1-2-1-(x)---4\-|(2)
D|-1-2-1-(X)---4\-|(2)

'Chorus': Play 7 times

(Time(2.29))
e|------------------------------------------------|
B|------------------------------------------------|
G|------------------------------------------------|
D|-0-3-0-3-0-3-0-3-0-3-XX-0-3-0-3-0-3-------------|
A|-0-3-0-3-0-3-0-3-0-3-XX-0-3-0-3-0-3-3/(5)\(3)-3-|(5)\(3)
D|-0-3-0-3-0-3-0-3-0-3-XX-0-3-0-3-0-3-------------|

'Chorus with change': Play 1 time

(Time(2.58))
e|----------------------------------------------|
B|----------------------------------------------|
G|----------------------------------------------|
D|-0-3-0-3-0-3-0-3-0-3-XX-0-3-0-3-0-3-----------|
A|-0-3-0-3-0-3-0-3-0-3-XX-0-3-0-3-0-3-3---------|(5)\(3)
D|-0-3-0-3-0-3-0-3-0-3-XX-0-3-0-3-0-3-----------|

'Pre-Chorus': Play 3 times

(Time(3.01))
P.M...................
e|---------------------------------|
B|---------------------------------|
G|---------------------------------|
D|---------------------1h2-1h2-2-1-|
A|---------------------1h2-1h2-2-1-|
D|-0-0-0-0-0-0-0-0-0-0-1h2-1h2-2-1-|

'Pre-Chorus': Play 1 time

(Time(3.14))
P.M...................
e|-------------------------------|
B|-------------------------------|
G|-------------------------------|
D|---------------------1h2-1h2-2-|
A|---------------------1h2-1h2-2-|
D|-0-0-0-0-0-0-0-0-0-0-1h2-1h2-2-|
            

comments powered by Disqus
↑ Back to top | Mushroomhead Tabs for 12 Hundred. Lyrics for acoustic guitar and electric guitar. Tablatures and chords are parodies/interpretations of the original songs. You may use it for private study, scholarship, research or language learning purposes only