» » »

Muse, Unitented Bass tabs (ver.1)

Artists:  A B C D E F G H I J K L M N O P Q R S T U V W X Y Z # 

Unitented Bass tabs (ver.1)

Muse Tabs
Rating:
0/5 (0 votes)
Unitented lessons Tabs too difficult? Try these video lessons and learn fast
                Muse
Basse
By Herisong


g|---|---|---|---|---|---|---|---|
d|---|---|-0-|---|---|---|---|---| 2fois
a|---|-0-|---|---|-3-|-2-|---|---|
e|-0-|---|---|-3-|---|---|-0-|-0-|

|---------|---------|---------|---------|-------2-|---------|---|-----|---|
|-----2---|---------|-----0---|---------|-----3---|-1-------|---|-----|---|
|---2---2-|-3-2-0---|---0---0-|-2-0-----|---3-----|---3-2-0-|---|-----|---|
|-4-------|-------3-|-2-------|-----3-2-|-0-------|---------|-4-|-3-2-|-0-|

Partie 1 : 1fois

|-----|-----|-----|-----|-----|---|---|---|---|---|---|---|---|
|-----|-----|-0---|-----|-----|---|---|---|---|---|---|---|---|
|---2-|-0-3-|---0-|---2-|-3---|-2-|---|---|-0-|---|---|---|---|
|-0---|-----|-----|-3---|---2-|---|-0-|-0-|---|-3-|-2-|-1-|-0-|
            
Submit corrections

comments powered by Disqus
↑ Back to top | Muse Bass for Unitented. Lyrics for acoustic guitar and electric guitar. Tablatures and chords are parodies/interpretations of the original songs. You may use it for private study, scholarship, research or language learning purposes only