» » »

Muse, Time Is Running Out Tabs (ver.5)

Artists:  A B C D E F G H I J K L M N O P Q R S T U V W X Y Z # 

Time Is Running Out Tabs (ver.5)

Muse Tabs
 Rating:
4/5 (4 votes)
Time Is Running Out lessons Tabs too difficult? Try these video lessons and learn fast
1
                


INTRO:(bass) x1
------------
G|----------------------------------------------------------------------|
D|-------------------------------2-----2--------------------------------|
A|-0-3-0-0-3-0---2-0-2-2/52---------------------3---------5------------|
E|-----------------------------0---0-0---0---1-1---1---3-3---3----------|

VERSE:
-------
I think I'm drowning, asphyxiated               |
I wanna break this spell that you've created    |Matthew sings it with
You're something beautiful, a contradiction     |   bass part only! (play intro twice)
I wanna play the game, I want the friction      |


 You will be the death of me    <here the guitar part comes is
 You will be the death of me
                                     E|-12-------11--------------12-13-10----|
                                     B|----13-10----13-10--9--12----------12-|
                                     G|--------------------------------------|
                                     D|--------------------------------------| (x2)
                                     A|--------------------------------------|
                                     E|--------------------------------------|


PRECHORUS:
-----------
 F      
 Bury it                                     E|---------------|
 G               A        G                  B|---------------|
 I won't let you bury it                     G|---------------|
                 F                           D|--3--5--7--10--|
 I won't let you smother it                  A|--3--5--7--10--| (palm muted)
 G               A          C                E|--1--3--5--8---|
 I won't let you murder it                       F  G  A  C

            
                       
CHORUS:(play barre chords)
--------
   (*********) F 
   Our time is running out                    (*********)part is:
   G           A            C                    E|-----------|
   Our time is running out                       B|-----------|
                     F                           G|-----------|
   You can't push it underground                 D|-----------|
   G                 A             (C)           A|--10--8-7--|
   You can't stop it screaming out               E|-----------|


the end of chorus is:E|--------------------|
                     B|--------------------|
                     G|--------------------|
                     D|--------------------|
                     A|------3--------5----|
                     E|--1-1---1--3-3---3--|


than Matthew plays:
E|-------------------------------------|
B|-------------------------------------|
G|--9--------8---------------9--10--7--|
D|----10--7-----10--7--6--9------------|
A|-------------------------------------|
E|-------------------------------------|


VERSE:                                            
-------
I wanted freedom bound and restricted
I tried to give you up but I'm addicted
Now that you know I'm trapped since ovulation
You'd never dream of breaking this fixation

             2nd verse play that way: (3 times)
                   E|----------------------------------------------------|
                   B|----------------------------------------------------|
                   G|-2-2-5-2----4-4-2-4------0-9------------------------|
                   D|-2-2-5-2----4-4-2-4----2-2-9-2----------------------|
                   A|-0-0-3-0----2-2-0-2----2-2-7-2--------3--------5----|
                   E|-----------------------0-0---0----1-1---1--3-3---3--|


 You will squeeze the life out of me   <once again this part:  (this is 3rd time)
                                     E|-12-------11--------------12-13-10----|
                                     B|----13-10----13-10--9--12----------12-|
                                     G|--------------------------------------|
                                     D|--------------------------------------| 
                                     A|--------------------------------------|
                                     E|--------------------------------------|

PRECHORUS: (play like 1st pch)
-----------
 Bury it
 I won't let you bury it
 I won't let you smother it
 I won't let you murder it

CHORUS: (play like 1st ch)
--------
   And our time is running out
   And our time is running out
   You can't push it underground
   You can't stop it screaming out
   Has it come to this?

        D5       A5
  aaahh ooooohhh yeah yeah yeah yeah yeahy  
  aaahh ooooohhh yeah yeah yeah yeah yeahy
  aaahh ooooohhh yeah yeah yeah yeah yeahy
  E (distored)
  yeah yeah yeeeeaah... 


BASS INTRO (x1)

than Matt comes in with sth like this:

   E|-----12-----12-----------11-----11------------10-----10----------8----8--8--------|
   B|---13-----13-----13----13-----13-----13-----12-----12-----12---10---10----10------|
   G|-14-----14-----12----14-----14-----14-----13-----13-----13----9----9--------------|
   D|----------------------------------------------------------------------------------|
   A|---------------------------------------------------------------------|
   E|---------------------------------------------------------------------|


 You will suck the life out of me    <once again this part:
                                     E|-12-------11--------------12-13-10----|
                                     B|----13-10----13-10--9--12----------12-|
                                     G|--------------------------------------|
                                     D|--------------------------------------| 
                                     A|--------------------------------------|
                                     E|--------------------------------------|


PRECHORUS:
-----------
 Bury it
 I won't let you bury it
 I won't let you smother it
 I won't let you murder it

CHORUS:
--------
   And our time is running out
   And our time is running out
   You can't push it underground
   You can't stop it screaming out
   How did it come to this?


  aaahh ooooohhh yeah yeah yeah yeah yeahy  
  aaahh ooooohhh yeah yeah yeah yeah yeahy
  aaahh ooooohhh yeah yeah yeah yeah yeahy
  yeah yeah yeeeeaah... 


OUTRO:
--------
E|------------------------|
B|------------------------|
G|------------------------|
D|--14---13---12---10-----|
A|------------------------|
E|------------------------|
            
Submit corrections

comments powered by Disqus
↑ Back to top | Muse Tabs for Time Is Running Out. Lyrics for acoustic guitar and electric guitar. 1 Tablatures and chords are parodies/interpretations of the original songs. You may use it for private study, scholarship, research or language learning purposes only