» » »

Muse, Space Dementia Bass tabs (ver.2)

Artists:  A B C D E F G H I J K L M N O P Q R S T U V W X Y Z # 

Space Dementia Bass tabs (ver.2)

Muse Tabs
 Rating:
4/5 (4 votes)
Space Dementia lessons Tabs too difficult? Try these video lessons and learn fast
                Riff 1  
G-----------------------------------------------------------------
D-----------------------------------------------------------------
A-----------------------------------------------------------------
D-2222222222222222222222222222222244444444444444444444444444444444

G-----------------------------------------------------------------
D-----------------------------------------------------------------
A-----------------------------------------------------------------
D-5555555555555555555555555555555577777777777777777777777777777777

G-----------------------------------------------------------------|
D-----------------------------------------------------------------|
A-2222222222222222444444444444444455555555555555556666666666666666|
D-----------------------------------------------------------------|

Riff 2 
G-----9-------9-------8-------8-------7-------7-------6-------6---
D-----------------------------------------------------------------
A-7-------7-------6-------6-------5-------5-------4-------4-------
D-----------------------------------------------------------------

G-----5-------5-------4-------4---|
D---------------------------------|
A-3-------3-------2-------2-------|
D---------------------------------|

Riff 3 
G----4----6--7---8---9---11--12--13--2---4---5---6---7---9---10--11-
D-------------------------------------------------------------------
A-2----4---5---6---7---9---10--11--0---2---3---4---5---7---8---9----
D-------------------------------------------------------------------

G-----5---7---8---9---11--9---7---6---4---6---7---8---9---9---9---9-
D-------------------------------------------------------------------
A---3---5---6---7---9---7---5---4---2---4---5---6---7---7---7---7---
D-------------------------------------------------------------------

G-----------------------------------4---4---4---4-----------------|
D---3---3---3---3---4---4---4---4---------------------------------|
A-----3-------3-------4-------4---2---2---2---2---2---------------|
D-3-------3-------4-------4---------------------------------------|

Riff 4 
G-----------------------------------------------------------------
D---2---4---5---6---7---9---10--11--0---2---3---4---5---7---8---9-
A-----------------------------------------------------------------
D-2---4---5---6---7---9---10--11--0---2---3---4---5---7---8---9---

G----5---7---8---9---11--9---7---6---4---6---7---8---9---9---9---9---
D--------------------------------------------------------------------
A--3---5---6---7---9---7---5---4---2---4---5---6---7---7---7---7-----
D--------------------------------------------------------------------

G-----------------------------------4---4---4---4---4---4---4---4-|
D---3---3---3---3---4---4---4---4---------------------------------|
A-----3-------3-------4-------4---2---2---2---2---2---2---2---2---|
D-3-------3-------4-------4---------------------------------------|

Riff 4 
G-----4--44-4---4---3---33-3---3---4---44---4---4---3---33---3-----
D------------------------------------------------------------------
A--2---2--2---2---1---1--1---1---2---2----2---2---1---1---1---1----
D------------------------------------------------------------------

G----4--44--4--4--3--33--3--3--5--55--5--5--4--44--4--4--
D--------------------------------------------------------
A--2--2---2--2--1--1---1--1--3--3---3--3--2--2---2--2----
D--------------------------------------------------------

G----3---33---3---3---2---22---2---2---2---22--2-------|
D------------------------------------------------------|
A--1---1----1---1---0---0----0---0---0---0---0---0-----|
D------------------------------------------------------|
                        
Riff 5 
G-----------------------------------------------------------------|
D-----------------------------------------------------------------|
A-----------------3~--------------1~--------------2~--------------|
D-2~--------------------------------------------------------------|

And the order is : 
Intro just piano
Riff 1x2
Riff 2x1
Riff 3x1
Riff 1x1
Riff 2x1
Riff 3x1
Riff 4x1
Riff 5x2
            
Submit corrections

comments powered by Disqus
↑ Back to top | Muse Bass for Space Dementia. Lyrics for acoustic guitar and electric guitar. Tablatures and chords are parodies/interpretations of the original songs. You may use it for private study, scholarship, research or language learning purposes only