» » »

Muse, Plug In Baby Tabs (ver.4)

Artists:  A B C D E F G H I J K L M N O P Q R S T U V W X Y Z # 

Plug In Baby Tabs (ver.4)

Muse Tabs
 Rating:
4/5 (4 votes)
Plug In Baby lessons Tabs too difficult? Try these video lessons and learn fast
                Muse - Plug In Baby

Chords are

D – x5777x
F# - 244322
G - 355433
Bm – x2444x

Intro
F#	
------------------------2h3p2-------
--------------3-----3-5-------5-3---
-3-4-6--3-4-6---4-6---------------6—
------------------------------------
------------------------------------
------------------------------------

  G                               D
---------------------2-2h3p2---2---------------------------------------
-----3-----3-5---3-5---------5---5--7-----------7-9 9(10)-9—7\6/7------
-4-6---4-6-----6----------------------7-------7-------------------7\6/7
----------------------------------------7-6-7--------------------------
   
   F#                                                                                                                                                                                  
------------------------2h3p2-------
--------------3-----3-5-------5-3---
-3-4-6--3-4-6---4-6---------------6—
------------------------------------
------------------------------------
------------------------------------

  G                               D
---------------------2-2h3p2---2---------------------------------------
-----3-----3-5---3-5---------5---5--7-----------7-9 9(10)-9—7\6/7------
-4-6---4-6-----6----------------------7-------7-------------------7\6/7
----------------------------------------7-6-7--------------------------

F#
------------------------2h3p2-------
--------------3-----3-5-------5-3---
-3-4-6--3-4-6---4-6---------------6—
------------------------------------
------------------------------------
------------------------------------

Verse 1

                  D       F#  
I've exposed your lies, baby
                           
                 G        
The underneath is no big surprise
         D            F#  
Now it's time for changing
         
              G
And cleansing everything
              
              D
To forget your love
                    

Bridge

F#

Chorus
G             Bm
  My plug in baby
              
F#          G      
Crucifies my enemies 
          
                   Bm
When I'm tired of giving
                   
Bm             F#
    wooohoohoo 

G              Bm
  My plug in baby 

      F#              G
In unbroken virgin realities 
                      
                D
And tired of living
                
wooohooooohooooooo

F#	
------------------------2h3p2-------
--------------3-----3-5-------5-3---
-3-4-6--3-4-6---4-6---------------6—
------------------------------------
------------------------------------
------------------------------------

  G                               D
---------------------2-2h3p2---2---------------------------------------
-----3-----3-5---3-5---------5---5--7-----------7-9 9(10)-9—7\6/7------
-4-6---4-6-----6----------------------7-------7-------------------7\6/7
----------------------------------------7-6-7--------------------------
   



   F#                                                                                                                                                                                  
------------------------2h3p2-------
--------------3-----3-5-------5-3---
-3-4-6--3-4-6---4-6---------------6—
------------------------------------
------------------------------------
------------------------------------


Verse 2
         D
Don't confuse
          
        F#
Baby you're gonna loose
                   
         G     D    
Your own game 
               
       F#
Change me 
       
               G
And replace the envying 
               
              D
To forget your love
              

Bridge

F#

Chorus

G              Bm
  My plug in baby

F#          G
Crucifies my enemies 
            
                   Bm
When I'm tired of giving
                   
Bm             F#
    wwooohoohoo 
               
G              Bm
  My plug in baby 

      F#              G       
In unbroken virgin realities 
                      
               D
And tired of living
               

wooohooooohoooo
F#
------------------------2h3p2-------
--------------3-----3-5-------5-3---
-3-4-6--3-4-6---4-6---------------6—
------------------------------------
------------------------------------
------------------------------------

and I think I love her					baby
  G                               D
---------------------2-2h3p2---2---------------------------------------
-----3-----3-5---3-5---------5---5--7-----------7-9 9(10)-9—7\6/7------
-4-6---4-6-----6----------------------7-------7-------------------7\6/7
----------------------------------------7-6-7--------------------------
                                    and I feel tired now                                            
F#
------------------------2h3p2-------
--------------3-----3-5-------5-3---
-3-4-6--3-4-6---4-6---------------6—
------------------------------------
------------------------------------
------------------------------------
                          woooohooohoooo                                                                            
  G                               D
---------------------2-2h3p2---2---------------------------------------
-----3-----3-5---3-5---------5---5--7-----------7-9 9(10)-9—7\6/7------
-4-6---4-6-----6----------------------7-------7-------------------7\6/7
----------------------------------------7-6-7--------------------------

F#
------------------------2h3p2-------
--------------3-----3-5-------5-3---
-3-4-6--3-4-6---4-6---------------6—
------------------------------------
------------------------------------
------------------------------------
                                                                            
  G                               D
---------------------2-2h3p2---2---------------------------------------
-----3-----3-5---3-5---------5---5--7-----------7-9 9(10)-9—7\6/7------
-4-6---4-6-----6----------------------7-------7-------------------7\6/7
----------------------------------------7-6-7--------------------------

F#
------------------------2h3p2---------
--------------3-----3-5-------5-3-----
-3-4-6--3-4-6---4-6---------------6—4-
--------------------------------------
--------------------------------------
--------------------------------------
            
Submit corrections

comments powered by Disqus
↑ Back to top | Muse Tabs for Plug In Baby. Lyrics for acoustic guitar and electric guitar. Tablatures and chords are parodies/interpretations of the original songs. You may use it for private study, scholarship, research or language learning purposes only