» » »

Muse, Plug In Baby Made Easy Tabs (ver.1)

Artists:  A B C D E F G H I J K L M N O P Q R S T U V W X Y Z # 

Plug In Baby Made Easy Tabs (ver.1)

Muse Tabs
 Rating:
4/5 (4 votes)
Plug In Baby Made Easy lessons Tabs too difficult? Try these video lessons and learn fast
                I learnt this from different tabs and changed the finger positions to make it very easy to learn and play
this is a gr8 song if you can play it well

ENJOY!!!!!!!!!


e---------------------0-2h3p2-0----|------------0-----0-2-2h3p2-1-2-1|-2-----------2-4-4-5^4-2-1-2-------|
B-----2-----2-3---2-3-----------3-2|0-2-3-0-2-3---2-3----------------|---3-------3-----------------3-2-3-|
G-3-4---3-4-----4------------------|---------------------------------|-----2---2-------------------------|
D----------------------------------|---------------------------------|-------4---------------------------|
A----------------------------------|---------------------------------|-----------------------------------|
E----------------------------------|---------------------------------|-----------------------------------|
  

e---------------------0-2h3p2-0----|-------|
B-----2-----2-3---2-3-----------3-2|0~~~---|
G-3-4---3-4-----4------------------|-------|
D----------------------------------|-------|
A----------------------------------|-------|
E----------------------------------|-------|
            
Submit corrections

comments powered by Disqus
↑ Back to top | Muse Tabs for Plug In Baby Made Easy. Lyrics for acoustic guitar and electric guitar. Tablatures and chords are parodies/interpretations of the original songs. You may use it for private study, scholarship, research or language learning purposes only