» » »

Muse, Plug In Baby Tabs (ver.7)

Artists:  A B C D E F G H I J K L M N O P Q R S T U V W X Y Z # 

Plug In Baby Tabs (ver.7)

Muse Tabs
 Rating:
4/5 (4 votes)
Plug In Baby lessons Tabs too difficult? Try these video lessons and learn fast
1
                (Intro)
(Guitar)
***[[[Muse - Plug in baby intro]]]***
This is right ive watched it from the front live about 10 times and matt has shown me it


e-----------------------2h3p2-0----|--------------------2-2h3p2-1-2-1|-2-----------2-4-4-5^4-2-1-2-------|
B-------------3-----3-5---------3-2|0-2-3-0-2-3-5-2-3-5--------------|---3-------3-----------------3-2-3-|
G-3-4-6-3-4-6---4-6----------------|---------------------------------|-----2---2-------------------------|
D----------------------------------|---------------------------------|-------4---------------------------|
A----------------------------------|---------------------------------|-----------------------------------|
E----------------------------------|---------------------------------|-----------------------------------|
  

e-----------------------2h3p2-0----|-------|
B-------------3-----3-5---------3-2|0~~~---|
G-3-4-6-3-4-6---4-6----------------|-------|
D----------------------------------|-------|
A----------------------------------|-------|
E----------------------------------|-------|
            
Submit corrections

comments powered by Disqus
↑ Back to top | Muse Tabs for Plug In Baby. Lyrics for acoustic guitar and electric guitar. 1 Tablatures and chords are parodies/interpretations of the original songs. You may use it for private study, scholarship, research or language learning purposes only