» » »

Muse, Plug In Baby Tabs (ver.6)

Artists:  A B C D E F G H I J K L M N O P Q R S T U V W X Y Z # 

Plug In Baby Tabs (ver.6)

Muse Tabs
Rating:
0/5 (0 votes)
Plug In Baby lessons Tabs too difficult? Try these video lessons and learn fast
                (Intro)
good song but a bit out of date,   its good for practising
i think i have it right ,no complaints because its onev of my first tabs

-------------------|--------2/3\2--------|------------------------------------
---------------3---|---3-5----------5-3-2|---2-3---2-3-5----------------------
-3--4-6-3-4-6----4-|-6-------------------|4------4----------------------------
-------------------|---------------------|------------------------------------
-------------------|---------------------|------------------------------------
-------------------|---------------------|------------------------------------
 these parts are just the intro                                               

-------2--2/3\2--1-|-2--------------4-4-4|-2-1-2------------------------------
-2-3-5-------------|---3----------3------|-------3-2-3------------------------
-------------------|------2-----2--------|------------------------------------
-------------------|---------4-----------|------------------------------------
-------------------|---------------------|------------------------------------
-------------------|---------------------|------------------------------------
 after this the verses and the choruses come in but they are cr*p and i       

 could not be bothered writing them out.
            

comments powered by Disqus
↑ Back to top | Muse Tabs for Plug In Baby. Lyrics for acoustic guitar and electric guitar. Tablatures and chords are parodies/interpretations of the original songs. You may use it for private study, scholarship, research or language learning purposes only