» » »

Muse, Plug In Baby Drop D Bass tabs (ver.1)

Artists:  A B C D E F G H I J K L M N O P Q R S T U V W X Y Z # 

Plug In Baby Drop D Bass tabs (ver.1)

Muse Tabs
 Rating:
4/5 (4 votes)
Plug In Baby  Drop D lessons Tabs too difficult? Try these video lessons and learn fast
1
                drop D tuning

riff1					 riff2
G|------------------------------------|  G|------------------------------------|
D|------------------------------------|  D|------4-------2-4-----4-------2-4---|
A|------5-------4-5-----5-------4-5---|  A|------------------------------------|
D|--0------00-0-----0------00-0-------|  D|--4------44-4-----4------44-4-------|
riff3
G|------------------------------------|
D|------5-------4-5-----5-------4-5---|
A|------------------------------------|
D|--5------55-5-----5------55-5-------|

pre-chorus
G|------------------------------------|
D|------------------------------------|
A|------------------------------------|
D|--4-4-4-4-4-4-4-4-4-4-4-4-4-4-4-4---|

chorus
G|--------------------------------------------------------------------|
D|--------------------------------------------------------------------|
A|--------------------------4-5-4-0-2-2-2-2-2-2-2-2-------------------|
D|--5-5-5-5-5-5-5-5-5-5-5-5-------------------------4-4-4-4-4-/8--0---|

G|--------------------------------------------------------------------|
D|--------------------------------------------------------------------|
A|--------------------------4-5-4-0-2-2-2-2-2-2-2-2-------------------|
D|--5-5-5-5-5-5-5-5-5-5-5-5-------------------------4-4-4-4-4-4-4-4---|

G|--------------------------------------------------------------------|
D|--------------------------------------------------------------------|
A|--------------------------4-5-4-0-2-2-2-2-2-2-2-2-------------------|
D|--5-5-5-5-5-5-5-5-5-5-5-5-------------------------4-4-4-4-4-/7--0---|

G|--------------------------------------------------------------------|
D|--------------------------------------------------------------------|
A|----------------------------0---0-5-5-5-5-5-5-5-5-5-5-5-5-5-5-5-5---|
D|--5-5-5-5-5-5-5-5-5-5-5-5-5-----------------------------------------|

chorus-out
G|----------------------------------------------------------------------------------------------------|
D|----------------------------------------------------------------------------------------------------|
A|------------------------------------------------------------------5-5-5-5-5-5-5-5-5-5-5-5-5-5-5-5---|
D|--4-4---4-4-4---4-4-4---4-4-4---4-5-5---5-5-5---5-5-5---5-5-5---5-----------------------------------|


playing order

intro(riff1 riff2 riff3 riff1 riff2)
verse(riff3 riff1 riff2 riff3 riff1 riff2 riff3 riff1)
pre-chorus
chorus
outro(riff2 riff3 riff1 riff2)
verse
pre-chorus
chorus
chorus-out * 2
outro
            
Submit corrections

comments powered by Disqus
↑ Back to top | Muse Bass for Plug In Baby Drop D. Lyrics for acoustic guitar and electric guitar. 1 Tablatures and chords are parodies/interpretations of the original songs. You may use it for private study, scholarship, research or language learning purposes only