» » »

Plug In Baby Tabs (ver.5)

Artists:  A B C D E F G H I J K L M N O P Q R S T U V W X Y Z # 

Plug In Baby Tabs (ver.5)

Muse
Rating:
0/5 (0 votes)

Hard to play? Try these video lessons and learn fast.
                (Complete)
Muse – Plug In Baby
e--------------------------------------------------------------------
B-----------------------7h8p7----------------------------7-7h8p7-6-7-
G-----6-----6-7---6-7-9-------9-7-6---6-7----6-7-9-6-7-9-------------
D-8-9---8-9-----9-------------------9------9-------------------------
A--------------------------------------------------------------------
E--------------------------------------------------------------------

e--------------------------------------------------------------
B-6-7-----7-9(10)-7----7---------------------------------------
G----7---7----------10---7-6-7---------------------------------   x3
D-----7-7------------------------------------------------------
A------9-------------------------------------------------------
E--------------------------------------------------------------

Last part of intro- 
e--------------------------------------------------------------------
B----------------------7h8p7-----------------------------------------
G-----6-----6-7---6-7-9------9-7-6-----------------------------------
D-8-9---8-9-----9------------------9---------------------------------
A--------------------------------------------------------------------
E--------------------------------------------------------------------

Verse
e--------------------------------------------------------------------
B----10--------11-------12--------10---------------------------------
G------11--------11-------12--------11------11-11-11-11-11-11-11-11--
D---------12-------11-------12--------12----11-11-11-11-11-11-11-11--
A--------------------------------------------9--9—-9--9--9--9--9--9--
E--------------------------------------------------------------------

e--------------------------------------------------------------------
B-----------------------------------------------------3-3-3-3--------
G-11-11-11-11-11-11-11-11----4-4-4-4-4-4-4-4-4-4-4-4--4-4-4-4--------
D-10-10-10-10-10-10-10-10----5-5-5-5-5-5-5-5-5-5-5-5--4-4-4-4--------
A--9--9--9--9--9--9--9--9----5-5-5-5-5-5-5-5-5-5-5-5--2-2-2-2--------
E----------------------------3-3-3-3-3-3-3-3-3-3-3-3-----------------

e-0-0-0-0-0-0----------------------------0-0-0-0-0-0-----------------
B-2-2-2-2-2-2-------------------3-3-3-3--2-2-2-2-2-2-----------------
G-3-3-3-3-3-3--4-4-4-4-4-4-4-4--4-4-4-4--3-3-3-3-3-3--4-4-4-4-4-4-4-4
D-4-4-4-4-4-4--5-5-5-5-5-5-5-5--4-4-4-4--4-4-4-4-4-4--5-5-5-5-5-5-5-5
A-x-x-x-x-x-x--5-5-5-5-5-5-5-5--2-2-2-2--x-x-x-x-x-x--5-5-5-5-5-5-5-5
E-2-2-2-2-2-2--3-3-3-3-3-3-3-3-----------2-2-2-2-2-2--3-3-3-3-3-3-3-3

e-5-5-5-5-5-5-5-5----------------------------------------------------
B-7-7-7-7-7-7-7-7----------------------------------------------------
G-7-7-7-7-7-7-7-7----------------------------------------------------
D-7-7-7-7-7-7-7-7----------------------------------------------------
A-5-5-5-5-5-5-5-5----------------------------------------------------
E-x-x-x-x-x-x-x-x----------------------------------------------------

e--------------------------------------------------------------------
B-----------------------7h8p7----------------------------7-7h8p7-6-7-
G-----6-----6-7---6-7-9-------9-7-6---6-7----6-7-9-6-7-9-------------
D-8-9---8-9-----9-------------------9------9-------------------------
A--------------------------------------------------------------------
E--------------------------------------------------------------------

e--------------------------------------------------------------------
B-6-7-----7-9(10)-7----7---------------------------------------------
G----7---7----------10---7-6-7---------------------------------------
D-----7-7------------------------------------------------------------
A------9-------------------------------------------------------------
E--------------------------------------------------------------------

e--------------------------------------------------------------------
B----------------------7h8p7-----------------------------------------
G-----6-----6-7---6-7-9------9-7-6-----------------------------------
D-8-9---8-9-----9------------------9---------------------------------
A--------------------------------------------------------------------
E--------------------------------------------------------------------
            
Hard to play? Try these video lessons and learn fast. | Correct




comments powered by Disqus
↑ Back to top | Tablatures and chords are parodies/interpretations of the original songs. You may use it for private study, scholarship, research or language learning purposes only