>
 >
New Born Drop D

New Born Drop D Guitar Tabs

Muse - New Born Drop D chords, tabs, tablatures, lyrics

Guitar lessons | Add/correct | Request | Top 50 tabs Artists:  A B C D E F G H I J K L M N O P Q R S T U V W X Y Z 0-9

New Born Drop D Guitar Tabs – Muse

CD, Sheet music, Poster

Do you like New Born Drop D? Share with your friends now
Tabs
Intro
|7-------7-------|7-------7-------|7-------7-------|7-------7-------|
|--8---8---8---8-|--7---7---7---7-|--8---8---8---8-|--7---7---7---7-|
|----9-------9---|----8-------8---|----9-------9---|----8-------8---|
|----------------|----------------|----------------|----------------|
|----------------|----------------|----------------|----------------|
|----------------|----------------|----------------|----------------|



|7-------7-------|8-------8-------|7-------7-------|7-------7-------|
|--8---8---8---8-|--8---8---8---8-|--8---8---8---8-|--7---7---7---7-|
|----9-------9---|----9-------9---|----7-------7---|----8-------8---|
|----------------|----------------|----------------|----------------|
|----------------|----------------|----------------|----------------|
|----------------|----------------|----------------|----------------|
Play all that 6 times, but on the last time, for the last bar, just strum 
those three notes once - you've heard the song, you know what I mean.


Cool bit (Part I)
|---------------|------------------|----------------|---------------|
|---------------|------------------|----------------|---------------|
|---------------|------------------|----------------|---------------|
|---------------|------------------|----------------|---------------|
|2-2-2-2-5-2-5-6|7-7-7-7-10-7-10-11|12-0-0-0-0-0-3-4|5-5-5-5-9-9-9-9|
|2-2-2-2-5-2-5-6|7-7-7-7-10-7-10-11|12-0-0-0-0-0-3-4|5-5-5-5-9-9-9-9|



|----------------|----------------|----------------|----------------|
|----------------|----------------|5---------------|4-4-4-4-4-4-4-4-|
|----------------|----------------|2-2-2-2-2-2-2-2-|2-2-2-2-2-2-2-2-|
|2-2-2-2-2-2-2-2-|2-2-2-2-2-2-2-2-|4-4-4-4-4-4-4-4-|4-4-4-4-4-4-4-4-|
|3-3-3-3-3-3-3-3-|1-1-1-1-1-1-1-1-|2-2-2-2-2-2-2-2-|2-2-2-2-2-2-2-2-|
|----------------|----------------|----------------|----------------|


Cool bit (part II) play it twice
|---------------|------------------|----------------|---------------|
|---------------|------------------|----------------|---------------|
|---------------|------------------|----------------|---------------|
|---------------|------------------|----------------|---------------|
|2-2-2-2-5-2-5-6|7-7-7-7-10-7-10-11|12-0-0-0-0-0-3-4|5-5-5-5-9-9-9-9|
|2-2-2-2-5-2-5-6|7-7-7-7-10-7-10-11|12-0-0-0-0-0-3-4|5-5-5-5-9-9-9-9|



|-0--------------|-0--------------|-2--------------|-2--------------|
|-1--------------|-2--------------|-5--------------|-4--------------|
|-0--------------|-0--------------|-2--------------|-2--------------|
|-2--------------|-2--------------|-4--------------|-4--------------|
|-3--------------|-1--------------|-2--------------|-2--------------|
|----------------|----------------|----------------|----------------|


Then this:
|----------------|
|----------------|
|----------------|
|-9-------------|
|-7-------------|
|----------------| That was a pretty important bit, I know.



Verse:
|-7---7---7---7--|-7---7---7---7--|-7---7---7---7--|-7---7---7---7--|
|-8---8---8---8--|-7---7---7---7--|-8---8---8---8--|-7---7---7---7--|
|-9---9---9---9--|-8---8---8---8--|-9---9---9---9--|-8---8---8---8--|
|----------------|----------------|----------------|----------------|
|----------------|----------------|----------------|----------------|
|----------------|----------------|----------------|----------------|



|-7---7---7---7--|-8---8---8---8--|-7---7---7---7--|-7---7---7---7--|
|-8---8---8---8--|-8---8---8---8--|-8---8---8---8--|-7---7---7---7--|
|-9---9---9---9--|-9---9---9---9--|-7---7---7---7--|-8---8---8---8--|
|----------------|----------------|----------------|----------------|
|----------------|----------------|----------------|----------------|
|----------------|----------------|----------------|----------------|


|-7---7---7---7--|-7---7---7---7--|-7---7---7---7--|-7---7---7---7--|
|-8---8---8---8--|-7---7---7---7--|-8---8---8---8--|-7---7---7---7--|
|-9---9---9---9--|-8---8---8---8--|-9---9---9---9--|-8---8---8---8--|
|----------------|----------------|----------------|----------------|
|----------------|----------------|----------------|----------------|
|----------------|----------------|----------------|----------------|



|-7---7---7---7--|-8---8---8---8--|-7---7---7---7--|-7---7---7---7--|
|-8---8---8---8--|-8---8---8---8--|-8---8---8---8--|-7---7---7---7--|
|-9---9---9---9--|-9---9---9---9--|-7---7---7---7--|-8---8---8---8--|
|----------------|----------------|----------------|----------------|
|----------------|----------------|----------------|----------------|
|----------------|----------------|----------------|----------------|


|-7---7---7---7--|-7---7---7---7--|-7---7---7---7--|-7---7---7---7--|
|-8---8---8---8--|-7---7---7---7--|-8---8---8---8--|-7---7---7---7--|
|-9---9---9---9--|-8---8---8---8--|-9---9---9---9--|-8---8---8---8--|
|-9--------------|----------------|-9--------------|----------------|
|-7--------------|----------------|-7--------------|----------------|
|----------------|----------------|----------------|----------------|



|-7---7---7---7--|-8---8---8---8--|-7---7---7---7--|-7---7---7---7--|
|-8---8---8---8--|-8---8---8---8--|-8---8---8---8--|-7---7---7---7--|
|-9---9---9---9--|-9---9---9---9--|-7---7---7---7--|-8---8---8---8--|
|-9--------------|----------------|----------------|----------------|
|-7--------------|----------------|----------------|----------------|
|----------------|----------------|----------------|----------------|


|-7---7---7---7--|-7---7---7---7--|-7---7---7---7--|-7---7---7---7--|
|-8---8---8---8--|-7---7---7---7--|-8---8---8---8--|-7---7---7---7--|
|-9---9---9---9--|-8---8---8---8--|-9---9---9---9--|-8---8---8---8--|
|-9--------------|----------------|-9--------------|----------------|
|-7--------------|----------------|-7--------------|----------------|
|----------------|----------------|----------------|----------------|



|-7---7---7---7--|-8---8---8---8--|-7---7---7---7--|-7---7---7---7--|
|-8---8---8---8--|-8---8---8---8--|-8---8---8---8--|-7---7---7---7--|
|-9---9---9---9--|-9---9---9---9--|-7---7---7---7--|-8---8---8---8--|
|-9--------------|----------------|----------------|----------------|
|-7--------------|----------------|----------------|----------------|
|----------------|----------------|----------------|----------------|


Chorus (play twice)
|--------0-------|----------------|----------------|----------------|
|--------0-------|----------------|---------7------|-8------7-------|
|----------------|-2--------------|----------------|----------------|
|----------------|-2-------5------|-4--------------|-5------4-------|
|-2--------------|-0--------------|-5--------------|----------------|
|-2--------------|----------------|----------------|----------------|



|-0-------0------|-0--------------|-2--------------|-2--------------|
|-1-------1------|-2--------------|-5--------------|-4--------------|
|-0-------0------|-0--------------|-2--------------|-2--------------|
|-2--------------|-2--------------|-4--------------|-4--------------|
|-3--------------|-1--------------|-2--------------|-2--------------|
|----------------|----------------|----------------|----------------|



Solo: now, for the first 4 bars, do that thing where you put your fingers on 
the strings, but don't push them down... I don't know the technical term, 
but I'm sure you know what I mean
|----------------|----------------|----------------|----------------|
|----------------|----------------|----------------|----------------|
|----------------|----------------|----------------|----------------|
|----------------|----------------|----------------|----------------|
|-2-2-2-2-2-2-2-2|-3-3-3-3-3-3-3-3|-6-6-6-6-6-6-6-6|6-6-6-6-7-8-9etc|
|-2-2-2-2-2-2-2-2|-3-3-3-3-3-3-3-3|-6-6-6-6-6-6-6-6|6-6-6-6-7-8-9etc|



|19---15-----15--|19---14-----14--|19---15-----15--|19---14-----14--|
|----------17--17|----------16--16|----------17--17|----------16--16|
|----------------|----------------|----------------|----------------|
|----------------|----------------|----------------|----------------|
|----------------|----------------|----------------|----------------|
|----------------|----------------|----------------|----------------|



|/19--15-----16--|/20--15---------|19---15---------|----------19----|
|----------17--17|----------17----|----------15----|16---19---------|
|----------------|--------------17|----------------|----------------|
|----------------|----------------|----------------|----------------|
|----------------|----------------|----------------|----------------|
|----------------|----------------|----------------|----------------|



|19---15-----16--|19---14-----14--|/19--/15------15|19---14-----14--|
|----------17--17|----------16--16|----------17----|----------16--16|
|----------------|----------------|----------------|----------------|
|----------------|----------------|----------------|----------------|
|----------------|----------------|----------------|----------------|
|----------------|----------------|----------------|----------------|



|/19--/15---15-19|20---15-------20|19---15---10----|-11--(11)-------|
|---------17-----|----------17----|----------------|-14-b-16--------|
|----------------|----------------|----------------|----------------|
|----------------|----------------|----------------|----------------|
|----------------|----------------|----------------|----------------|
|----------------|----------------|----------------|----------------|

Repeat Verse
Repeat Chorus

Play cool bit part II 3 times, except on the second time, 7th bar:
|-2-x-x-x---x--x-|
|-5-x-x-x---x--x-|
|-2-x-x-x---x--x-|
|-4-x-x-x---x--x-|
|-2-x-x-x---x--x-|
|----------------|


3rd time, bars 5 & 6
|-0--------------|-0--------------|
|-1--------------|-2--------------|
|-0-------2b3r2-0|-0-------2b3r2-0|
|-2--------------|-2--------------|
|-3--------------|-1--------------|
|----------------|----------------|


|-0--------------|
|-0--------------|
|-0--------------|
|-2--------------|
|-2--------------|
|-2--------------|





Comments


Popular Muse tabs & chords
Explorers Bass Tabs
Feeling Good Bass Tabs
Knights Of Cydonia 4 Bass Tabs
Space Dementia 1 Bass Tabs
Apocalypse Please 1 Chords
Assassin Chords
Guiding Light 5 Tabs
Madness 3 Tabs
Newborn Super Easy Tabs
Plug It In Baby Tabs


Song lyrics



↑ Back to top | Tablatures and chords are parodies/interpretations of the original songs. You may use it for private study, scholarship, research or language learning purposes only
© 2014 AZChords.com Contact us | Privacy policy | DMCA | Add/correct tabs | Request tabs | Top 50 tabs