» » »

New Born Different Chorus Tabs (ver.1)

Artists:  A B C D E F G H I J K L M N O P Q R S T U V W X Y Z # 

New Born Different Chorus Tabs (ver.1)

Muse
Rating:
0/5 (0 votes)

Hard to play? Try these video lessons and learn fast.
                Artist – Muse
Song – New born
Instrument - Bass

Tuning – dropped D 
    D, A, D, G

After the piano riff has played once play

Intro part a x4
G ---9-----|---------|---------|---8-----|
D -----7-9-|---10----|---9-----|-----7-9-|
A –7-------|-----8-10|-----8-10|–6-------|
D ---------|-8-------|-7-------|---------|
    (x10)     (x2)       (x2)      (x2)

Intro part b x1
G ---9-----|---------|---------|
D -----7-9-|---10----|---9-----|
A –7-------|-----8-10|-----8-10|
D ---------|-8-------|-7-------|
    (x10)     (x2)       (x2)     

Main riff (x3)
G -------------------------------------------------------
D -------------------------------------------------------
A -------------------------------------------------------
D 2--2--2--2--5--2--5--6--7--7--7—7--10-7--10-11-12--0--0

G -------------------------------------------------------
D -------------------------------------------------------
A ---------------------------------------------------3--3 D --0--12--0--0--0--3--4--5--5--5--5--0--9—-9—-7--9------

G -------------------------------------------------------
D -------------------------------------------------------
A --3--3--3--3--3--3--1--1--1--1--1--1--1--1--2--2--2--2-D -------------------------------------------------------

G --------------------------------------|
D --------------------------------------|
A --2--2--2--2--14-14-14-14-14-14-14-14-|
D --------------------------------------|

Then back into intro part a (x4)

Chorus

G -------------------------------------------------------
D -------------------------------------------------------
A -------------------9-9-9--9—101010-10-7-7-7-7--7------
D 2-2-2--2—7-7-7—-7---------------------------------1010

G -------------------------|
D -------------------------| (Play a few more 9’s at the
A -------------------------| end of the 2nd time)
D 10-10-8-8-8--8--9-9-9--9-| 

Bit between chorus and solo
G ------------------------|
D ------------------------| (play as many notes as 
A ------------------------|  necessary)
D 0--0--0--0--0--0--0--0--|

Play Intro partA behind the solo x3 then for the verse x4
Then go into the chorus again and finally the main riff (x3)
            
Hard to play? Try these video lessons and learn fast. | Correct




comments powered by Disqus
↑ Back to top | Tablatures and chords are parodies/interpretations of the original songs. You may use it for private study, scholarship, research or language learning purposes only