>
 >
Neutron Star Collision 5

Neutron Star Collision 5 Guitar Tabs

Muse - Neutron Star Collision 5 chords, tabs, tablatures, lyrics

Guitar lessons | Add/correct | Request | Top 50 tabs Artists:  A B C D E F G H I J K L M N O P Q R S T U V W X Y Z 0-9

Neutron Star Collision 5 Guitar Tabs – Muse

CD, Sheet music, Poster

Do you like Neutron Star Collision 5? Share with your friends now
ChordsChords v2Chords v3Chords v4Chords v5Chords v6TabsTabs v2Tabs v3Tabs v4Tabs v5Tabs v6
---------------------------------------------------------------------------
---------------------------------------------------------------------------



Tuning: EADGBE (Standard)

Guitar comes in at 00:52

Intro:
e|------------------------------------------------------------------------|
B|------------------------------------------------------------------------|
G|------------------------------------------------------------------------|
D|------------------------------------------------------------------------|
A|--------4--420---------4~-----------------------------------------------|
E|-2--45----------2--45---------------------------------------------------|

Verse: No guitar again until Chorus

Chorus:
e|------------------------------------------------------------------------|
B|------------------------------------------------------------------------|
G|----------------------64444448-10101010101010------8-66----------------|
D|--44444444--67777777--64444448-10101010101010X3---8-66----------------|
A|--44444444--67777777--44444446-88888888888888------6-44----------------|
E|--22222222--45555555----------------------------------------------------|


Solo: (With reverb)
e|9-9-9-9-8-8-4-4-6-4-2-1/4-2-1-4-8-9-13-13h14p13-8-9-8-9-11-13-4---------|
B|------------------------------------------------------------------------|
G|------------------------------------------------------------------------|
D|------------------------------------------------------------------------|
A|------------------------------------------------------------------------|
E|------------------------------------------------------------------------|

OR

Solo: (With reverb)
e|9-9-9-9-8-8-----------------------9-11-13-13b14b13-11----------11-13b---|
B|------------9-9/11--------------9---------------------13-12-13----------|
G|------------------11-10/13-11--10------------------------------------13-|
D|------------------------------------------------------------------------|
A|------------------------------------------------------------------------|
E|------------------------------------------------------------------------|



| /  slide up
| \  slide down
| h  hammer-on
| p  pull-off
| ~  vibrato
| +  harmonic
| x  Mute note
===========================================================================





Comments


Popular Muse tabs & chords
Hyper Music Bass Tabs
Twin Bass Tabs
Hysteria 1 Chords
Action Faust Tabs
Cave 1 Tabs
I Want You Now Tabs
In Your World Studio Version Tabs
Nature Tabs
New Born Studio Edition Tabs
Hysteria Ukulele


Song lyrics



↑ Back to top | Tablatures and chords are parodies/interpretations of the original songs. You may use it for private study, scholarship, research or language learning purposes only
© 2014 AZChords.com Contact us | Privacy policy | DMCA | Add/correct tabs | Request tabs | Top 50 tabs