» » »

Muse, Muscle Museum Tabs (ver.4)

Artists:  A B C D E F G H I J K L M N O P Q R S T U V W X Y Z # 

Muscle Museum Tabs (ver.4)

Muse Tabs
 Rating:
4/5 (4 votes)
Muscle Museum lessons Tabs too difficult? Try these video lessons and learn fast
                (Intro)
**********************MUSCLE MUSEUM (INTRO)**********************8

*TAB INCOMPLETE! WILL HOPEFULLY BE FINISHED SOON*

In the meantime, here's the intro.................
NOTE-Get an organ to double this on octave up if you can.
Listen to the record for the exact timings



e-5-5-5-5-5-5-5-5-----8-8-----7-7---5-5-5-5---5-5-5-5-
B-7-7-7-7-7-7-7-7----10-10----9-9---7-7-7-7---7-7-7-7-
G-----------------------------------------------------
D-----------------------------------------------------
A-----------------------------------------------------
E-----------------------------------------------------

e-4-4-4-4---7-7---5-5--5-5-5-5-5-5-5-5--7--8--9--10-----
B-6-6-6-6---9-9---7-7--7-7-7-7-7-7-7-7--9-10-11--12-----
G-------------------------------------------------------
D-------------------------------------------------------
A-------------------------------------------------------
E-------------------------------------------------------

The timing and rhythm in this are really bad. Listen to the record-
the notes should be right though.

******************************************************************
TARNSCRIBED BY
The Archetypal Loom.
            
Submit corrections

comments powered by Disqus
↑ Back to top | Muse Tabs for Muscle Museum. Lyrics for acoustic guitar and electric guitar. Tablatures and chords are parodies/interpretations of the original songs. You may use it for private study, scholarship, research or language learning purposes only