» » »

Muse, Mk Ultra Bass tabs (ver.5)

Artists:  A B C D E F G H I J K L M N O P Q R S T U V W X Y Z # 

Mk Ultra Bass tabs (ver.5)

Muse Tabs
Rating:
0/5 (0 votes)
Mk Ultra lessons Tabs too difficult? Try these video lessons and learn fast
                G|------------------------------------------------|
D|12-12-12-12-12-12-12-12-12-12-12-12-12-12-12-12-|
A|------------------------------------------------|
D|------------------------------------------------|

G|--------------------------------|
D|3-3-3-3-3-3-3-3/7-7-7-7-7-7-7-7-|
A|--------------------------------|
D|--------------------------------|

G|------------------------------------------------------------------------|
D|0-0-0-0-0-0-0-0-0-0-0-0-0-0-0-0-3-3-3-3-3-3-3-3/10-10-10-10-10-10-10-10-|
A|------------------------------------------------------------------------||
D|------------------------------------------------------------------------||
                                                                           |
G|------------------------------------------------|                        |
D|12-12-12-12-12-12-12-12-12-12-12-12-12-12-12-12-|                       x4
A|------------------------------------------------|                        |
D|------------------------------------------------|                        |
                                                                           |
G|--------------------------------|                                        |
D|3-3-3-3-3-3-3-3/7-7-7-7-7-7-7-7-|________________________________________|
A|--------------------------------|
D|--------------------------------|

G|----------------------------------------------------------------|
D|----------------------------------------------------------------|
A|1-1-1-1-1-1-1-1-1-1-1-1-1-1-1-1-3-3-3-3-3-3-3-3-3-3-3-3-3-3-3-3-|
D|----------------------------------------------------------------|

G|----------------------------------------------------------------|
D|----------------------------------------------------------------|
A|4-4-4-4-4-4-4-4-4-4-4-4-4-4-4-4-5-5-5-5-5-5-5-5-5-5-5-5-5-5-5-5-|
D|----------------------------------------------------------------|

G|----------------------------------------------------------------|
D|----------------------------------------------------------------|
A|7-7-7-7-7-7-7-7-7-7-7-7-7-7-7-7-0-0-0-0-0-0-0-0-0-0-0-0-0-0-0-0-|
D|----------------------------------------------------------------|

G|--------------------------------------------------------------|
D|--------------------------------------------------------------|_
A|--------------------------------------------------------------| |
D|12-12--12--12\-12-12--12-11\-10-10--10-10\-9-9--9-9\-8-8--8-8\| | 
                                                                  | x2
G|---------|                                                      |
D|---------|_x3___________________________________________________|
A|---------|
D|7-7--7-7\|

G|---------------|
D|---------------| x4
A|--------------7|
D|0-0-3-0-5-7-0--|

G|------------------------------------------------------------------------|
D|0-0-0-0-0-0-0-0-0-0-0-0-0-0-0-0-3-3-3-3-3-3-3-3/10-10-10-10-10-10-10-10-|
A|------------------------------------------------------------------------|
D|------------------------------------------------------------------------|

G|------------------------------------------------|
D|12-12-12-12-12-12-12-12-12-12-12-12-12-12-12-12-|
A|------------------------------------------------|
D|------------------------------------------------|

G|--------------------------------|
D|3-3-3-3-3-3-3-3/7-7-7-7-7-7-7-7-|
A|--------------------------------|
D|--------------------------------|

G|------------------------------------------------------------------------|
D|0-0-0-0-0-0-0-0-0-0-0-0-0-0-0-0-3-3-3-3-3-3-3-3/10-10-10-10-10-10-10-10-|
A|------------------------------------------------------------------------||
D|------------------------------------------------------------------------||
                                                                          x2
G|------------------------------------------------------------------------||
D|12-12-12-12-12-12-12-12-8-8-8-8-8-8-8-8-3-3-3-3-3-3-3-3/7-7-7-7-7-7-7-7-||
A|------------------------------------------------------------------------|
D|------------------------------------------------------------------------|

G|----------------------------------------------------------------|
D|----------------------------------------------------------------|
A|1-1-1-1-1-1-1-1-1-1-1-1-1-1-1-1-3-3-3-3-3-3-3-3-3-3-3-3-3-3-3-3-|
D|----------------------------------------------------------------|

G|----------------------------------------------------------------|
D|----------------------------------------------------------------|
A|4-4-4-4-4-4-4-4-4-4-4-4-4-4-4-4-5-5-5-5-5-5-5-5-5-5-5-5-5-5-5-5-|
D|----------------------------------------------------------------|

G|----------------------------------------------------------------|
D|----------------------------------------------------------------|
A|7-7-7-7-7-7-7-7-7-7-7-7-7-7-7-7-0-0-0-0-0-0-0-0-0-0-0-0-0-0-0-0-|
D|----------------------------------------------------------------|

G|------------------------------------------------|
D|------------------------------------------------|
A|------------------------------------------------|
D|12-12-12-12-12-12-12-12-12-12-12-12-12-12-12-12-|

G|------------------------------------------------|
D|------------------------------------------------|
A|------------------------------------------------|
D|12-12-12-12-12-12-12-12-11-11-11-11-11-11-11-11-|

G|------------------------------------------------|
D|------------------------------------------------|
A|------------------------------------------------|
D|10-10-10-10-10-10-10-10-10-10-10-10-10-10-10-10-|

G|----------------------------------------------------------------|
D|----------------------------------------------------------------|
A|----------------------------------------------------------------|
D|9-9-9-9-9-9-9-9-9-9-9-9-9-9-9-9-8-8-8-8-8-8-8-8-8-8-8-8-8-8-8-8-|

G|----------------|
D|----------------| x5
A|----5---7---5h7-|
D|7-7---7---7-----|

G|-------|
D|-------|
A|-------|
D|19\\\\\|

G|---------------|
D|---------------| x12 hold last note then slide down neck
A|--------------7|
D|0-0-3-0-5-7-0--|
            
Submit corrections

comments powered by Disqus
↑ Back to top | Muse Bass for Mk Ultra. Lyrics for acoustic guitar and electric guitar. Tablatures and chords are parodies/interpretations of the original songs. You may use it for private study, scholarship, research or language learning purposes only