» » »

Minimum Bass tabs (ver.6)

Artists:  A B C D E F G H I J K L M N O P Q R S T U V W X Y Z # 

Minimum Bass tabs (ver.6)

Muse
Rating:
0/5 (0 votes)

Tabs too difficult? Try these video lessons and learn fast.
                



Guitar Intro (wait)

Bass Intro
                X3
G||--------------|
D||----9-----79--|
A||------8-9-----|
E||--7-----------|

Verse 1
               X10
G||--------------|---------------|
D||----9-----79--|----9----------|
A||------8-9-----|------8-9------|
E||--7-----------|--7--------7\--|

Chorus 1
                X8
G||---------------|-----|------|
D||---------------|-----|--79--|
A||--2-------0-1--|--2--|------|
E||----0-1-2------|-----|------|

Verse 2 
               X10
G||--------------|---------------|
D||----9-----79--|----9----------|
A||------8-9-----|------8-9------|
E||--7-----------|--7--------7\--|

Chorus 2
                X8
G||---------------|-----|
D||---------------|-----|
A||--2-------0-1--|--2--|
E||----0-1-2------|-----|

Crazy Interlude (wait)

G||---------|
D||---------|
A||--2/9\2--|
E||---------|

Chorus 3
                X8
G||---------------|-----|
D||---------------|-----|
A||--2-------0-1--|--2--|
E||----0-1-2------|-----|
            
Tabs too difficult? Try these video lessons and learn fast.


comments powered by Disqus
↑ Back to top | Tablatures and chords are parodies/interpretations of the original songs. You may use it for private study, scholarship, research or language learning purposes only