» » »

Minimum Bass tabs (ver.5)

Artists:  A B C D E F G H I J K L M N O P Q R S T U V W X Y Z # 

Minimum Bass tabs (ver.5)

Muse
Rating:
0/5 (0 votes)

Tabs too difficult? Try these video lessons and learn fast.
                My First Tab, Please Rate...

Intro of Guitar, Wait 4 Bars...

verse 1
G|------------------------------|
D|----9-----7-9-----------------|
A|------7-9---------------------| X14
E|--7---------------------------|

Chorus 1
G|------------------------------|
D|----9-------7-8-9-------------| 
A|------7-8-9-------------------| X8
E|------------------------------|

Verse 2
G|------------------------------|
D|------------------------------|
A|------------------------------|
E|--7---------------------------|

G|------------------------------|
D|----9-----7-9-----------------|
A|------7-9---------------------| X11
E|--7---------------------------|

Chorus 2
G|------------------------------|
D|----9-------7-8-9-------------| 
A|------7-8-9-------------------| X8
E|------------------------------|

During Guitar Solo
G|------------------------------|
D|----9-------7-8-9-------------| 
A|------7-8-9-------------------| X8
E|------------------------------|

Chorus 3
G|------------------------------|
D|----9-------7-8-9-------------| 
A|------7-8-9-------------------| X8
E|------------------------------|

End On
G|------------------|
D|------------------|
A|------------------|
E|--7---------------|
            
Tabs too difficult? Try these video lessons and learn fast.




comments powered by Disqus
↑ Back to top | Tablatures and chords are parodies/interpretations of the original songs. You may use it for private study, scholarship, research or language learning purposes only