» » »

Muse, Minimum Bass tabs (ver.3)

Artists:  A B C D E F G H I J K L M N O P Q R S T U V W X Y Z # 

Minimum Bass tabs (ver.3)

Muse Tabs
Rating:
0/5 (0 votes)
Minimum lessons Tabs too difficult? Try these video lessons and learn fast
                Standerd Tuning

4by4 time

4 bar guitar intro

Verse (one bar)
g||------------------||
d||-----------------*||
a||-----2--------0-1*||repeat X14
e||-0-----1---2------||
  
1st Chorus (one bar)
g||------------------||
d||-----------------*||
a||-2------------0-1*||repeat X8
e||-----0-1---2------||

2nd Verse (one bar)

g||------------------||
d||------------------||
a||--------------0-2-||
e||------------------||

g||------------------||
d||-----------------*||
a||-----2--------0-1*||repeat X11
e||-0-----1---2------||

2nd Chorus (one bar)
g||------------------||
d||-----------------*||
a||-2------------0-1*||repeat X8
e||-----0-1---2------||

Leave 8 bars for guitar solo
but on the 8th bar of the solo play

g||------------------||
d||------------------||
a||------------------||
e||--0--/--12--\--0--||


2nd Chorus (one bar)
g||------------------||
d||-----------------*||
a||-2------------0-1*||repeat X8
e||-----0-1---2------||

EnD On
g||------------------||
d||------------------||
a||--2---------------||
e||------------------||
            
Submit corrections

comments powered by Disqus
↑ Back to top | Muse Bass for Minimum. Lyrics for acoustic guitar and electric guitar. Tablatures and chords are parodies/interpretations of the original songs. You may use it for private study, scholarship, research or language learning purposes only