» » »

Muse, Map Of The Problematique Tabs (ver.8)

Artists:  A B C D E F G H I J K L M N O P Q R S T U V W X Y Z # 

Map Of The Problematique Tabs (ver.8)

Muse Tabs
Rating:
0/5 (0 votes)
Map Of The Problematique lessons Tabs too difficult? Try these video lessons and learn fast
                ----------------------------------------------------------------------------
----------------------------------------------------------------------------

Tuning:E string is tuned down to C
NOTE: The effect is rough to get so if you can figure it out here is the correct way to
play this song the effect is 16 step sequencer with 2 whammys 1 with an octave higher
the other whammy with an octave lower. Fuzz is recommended

INTRO:
e|---------------------------------------------------------------------------|
B|---------------------------------------------------------------------------|
G|---------------------------------------------------------------------------|
D|---------------------------------------------------------------------------|
A|--3------------------------------------------------------------------------|
C|--0--x4--------------------------------------------------------------------|

RIFF:
e|---------------------------------------------------------------------------|
B|---------------------------------------------------------------------------|
G|---------------------------------------------------------------------------|
D|---------------------------------------------------------------------------|
A|---------------------------------------------------------------------------|
C|-0-0-0-0-0-0-0-0-3-3-3-3-3-3-3-3-8-8-8-8-8-8-8-8-5-5-5-5-5-5-5-5-X4--------|

Let the sequencer handle the effect here play these chords once and have the effect
carry them. VERSE:

e|---------------------------------------------------------------------------|
B|-------------3--4--4--4--6-------------------------------------------------|
G|-5--5--5--5--5--5--5--5--5-------------------------------------------------|
D|-x--x--6--3--3--5--x--6--3-------------------------------------------------|
A|-3--6--6--5--5--3--6--6----------------------------------------------------|
C|---------------------------------------------------------------------------|

REPEAT RIFF THEN INTRO THEN VERSE THEN INTRO EASY THATS IT HAVE FUN!
HERE IS THE OUTRO RIFF USED AT ABBEY ROAD:

e|---------------------------------------------------------------------------|
B|---------------------------------------------------------------------------|
G|---------------------------------------------------------------------------|
D|---------------------------------------------------------------------------|
A|--------------------------------3*-3*-0-3*-3*-0-3*-------------------------|
C|-0-0-3b-0-0-3-3-0-3-5-0-0-3b-0-0---------------------13\\\\\\\\\-----------|

e|---------------------------------------------------------------------------|
B|-----------------------------------18-18-18-18-18--------------------------|
G|-----------------------------------18-18-18-18-18--------------------------|
D|---------------------------------------------------------------------------|
A|---------------------------------------------------------------------------|
C|-0-0-3b-0-0-3-3-0-3-5bu-0-0-3b-0-0-----------------------------------------|

e|---------------------------------------------------------------------------|
B|---------------------------------------------------------------------------|
G|------------------------------------3*-------------------------------------|
D|----------------------------------4*---------------------------------------|
A|--------------------------------3*-----3*----------------------------------|
C|-0-0-3b-0-0-3-3-0-3-5-0-0-3-0-0--------------------------------------------|

e|---------------------------------------------------------------------------|
B|----------------------------------8-----8----8----8------------------------|
G|----------------------------------10bu--10bu-10bu-10bu---------------------|
D|---------------------------------------------------------------------------|
A|---------------------------------------------------------------------------|
C|-0-0-3b-0-0-3-3-0-3-5-0-0-3-0-0--------------------------------------------|

e|---------------------------------------------------------------------------|
B|--------------------------------8-8-8b-------------------------------------|
G|--------------------------------8-8-8b-------------------------------------|
D|---------------------------------------------------------------------------|
A|---------------------------------------------------------------------------|
C|-0-0-3b-0-0-3-3-0-3-5-0-0-3-0-0--------------------------------------------|

e|-----------------------------------------------------------------------------|
B|-----------------------------------------------------------------------------|
G|----------------------------------3b-4b-5------------------------------------|
D|-----------------------------------------------------------------------------|
A|-----------------------------------------------------------------------------|
C|-0-0-3b-0-0-3-3-0-3-5-0-0-3-0-0--------------0-0-13\\\\\---------------------|
            
Submit corrections

comments powered by Disqus
↑ Back to top | Muse Tabs for Map Of The Problematique. Lyrics for acoustic guitar and electric guitar. Tablatures and chords are parodies/interpretations of the original songs. You may use it for private study, scholarship, research or language learning purposes only