» » »

Madness Tabs (ver.5)

Artists:  A B C D E F G H I J K L M N O P Q R S T U V W X Y Z # 

Madness Tabs (ver.5)

Muse
Rating:
0/5 (0 votes)

Hard to play? Try these video lessons and learn fast.
                MUSE - MADNESS SOLO

Note: this is copied and corrected from the Madness Solo version 2 on this site. Tuning
is standard but the guitar has a pretty mean tone so it might sound better to tune the
guitar down and adjust these notes up a fret (or more) to compensate. Also, I think the 
timing (W, Q, E, S) was a little off so I removed those.

Standard tuning (EADGBE)


E|-----------|-----------------------|-----------------------------|
B|-13b15-----|-------11-13b15--13-11-|-13v-13b15r13p11-13p11v------|
G|-----------|-----10----------------|-----------------------------|
D|-----------|---12------------------|-----------------------------|
A|-----------|-----------------------|-----------------------------|
E|-----------|-----------------------|---------------------------6=|


E|---------11-----------|------18-----18-----16-----16-----15---|
B|---------13b15-13--11-|---------------------------------------|
G|----------------------|-12-13--12-13--12-13--12-13--12-13--12-|
D|----------------------|---------------------------------------|
A|-w/bar----------------|---------------------------------------|
E|-(6)\\----------------|---------------------------------------|


E|---15-----13-----13--------------------|----------------|--------|
B|------------------------16-----16------|-15v-------13---|--------|
G|-13--12-13--12-13--12-13--12-13--12-13-|----------------|--------|
D|---------------------------------------|---------13--13-|--------|
A|---------------------------------------|----------------|-w/bar--|
E|---------------------------------------|----------------|-10\\---|

Legend:
b = bend
r = release bend
h = hammer
p = pulloff
\\ = whammy bar dive
v = Vibrato
            
Hard to play? Try these video lessons and learn fast. | Correct




comments powered by Disqus
↑ Back to top | Tablatures and chords are parodies/interpretations of the original songs. You may use it for private study, scholarship, research or language learning purposes only