>
 >
Liquid State 5

Liquid State 5 Bass Tabs

Muse - Liquid State 5 chords, tabs, tablatures, lyrics

Guitar lessons | Add/correct | Request | Top 50 tabs Artists:  A B C D E F G H I J K L M N O P Q R S T U V W X Y Z 0-9

Liquid State 5 Bass Tabs – Muse

CD, Sheet music, Poster

Do you like Liquid State 5? Share with your friends now
Bass TabsBass Tabs v2Bass Tabs v3Bass Tabs v4Bass Tabs v5ChordsTabsUkulele
Band: Muse
Bassist: Chris Wolstenholme
Tuning: Dropped D


Every note in this song is eight note. 

Intro:
  +     +     +     +
G|------------------------|
D|---------------------9--|
A|------------------------|
D|------------------------|

  +     +     +     +      +     +     +     +
G|------------------------|------------------------|  |
D|10-------------------9--|10-------------------9--|  |
A|---0--0--0--0--0--0-----|---0--0--0--0--0--0-----|  |
D|------------------------|------------------------|  |
                                                      | x2
G|------------------------|------------------------|  |
D|10-------10-13-------13-|12-10-13-12-10-13-12-9--|  |
A|---0--0--------0--0-----|------------------------|  |
D|------------------------|------------------------|  |

Verse: 

  +     +     +     +      +     +     +     +
G|------------------------|------------------------|  
D|10-------------------10-|12-------------------12-|  
A|---0--0--0--0--0--0-----|---0--0--0--0--0--0-----|  
D|------------------------|------------------------|  
                                                      
G|------------------------|------------------------|  
D|13-------13-14-------13-|12-10-13-12-10-13-12-9--|  
A|---0--0--------0--0-----|------------------------|  
D|------------------------|------------------------|  

G|------------------------|---------------------7--|  
D|10-------------------10-|12----------------------|  
A|---8--8--8--8--8--8-----|---8--8--8--8--8--8-----|  
D|------------------------|------------------------|  
                                                     
G|9--------9--10----------|------------------------| 
D|---------------------13-|12-10-13-12-10-13-12-10-| 
A|---8--8--------8--8-----|------------------------|  
D|------------------------|------------------------|  

G|------------------------|------------------------|
D|12-0--0--0--0--0--0--12-|14-0--0--0--0--0--0--14-|
A|------------------------|------------------------|
D|------------------------|------------------------|

G|------------------------|------------------------|
D|15-0--0--15-18-0--0--13-|12-10-13-12-10-13-12----| 
A|------------------------|---------------------10-|
D|------------------------|------------------------|

G|------------------------|------------------------|
D|------------------------|------------------------|
A|12-0--0--0--0--0--0--10-|12-0--0--0--0--0--0--10-|
D|------------------------|------------------------|

G|------------------------|------------------------|
D|------------------------|---------------------9--|
A|12-0--0--0--0--0--0--10-|12-0--0--0--0--0--0-----|
D|------------------------|------------------------| 

Play verse three times. Below are last bar before first chorus:

G|------------------------|
D|------------------------|
A|12-12-12-12-12-12-12-7--|
D|------------------------|

Chorus:
 
  +     +     +     +      +     +     +     +
G|------------------------|------------------------|
D|------------------------|------------------------|
A|8--------------------8--|10-------------------10-|
D|---0--0--0--0--0--0-----|---0--0--0--0--0--0-----|

G|------------------------|------------------------|
D|------------------------|------------------------|
A|11-------11-12----------|11-10-8--11-10-8--11-7--|
D|---0--0--------0--0--0--|------------------------|

G|------------------------|------------------------|
D|------------------------|------------------------|
A|8--------------------8--|10-------------------10-|
D|---8--8--8--8--8--8-----|---8--8--8--8--8--8-----|

G|------------------------|------------------------| 
D|7--------7--8-----------|------------------------|
A|------------------------|11-10-8--11-10-8--11-8--|
D|---8--8--------8--8--8--|------------------------|

G|------------------------|------------------------|
D|---------------------5--|7--------------------7--|
A|10----------------------|------------------------|
D|---5--5--5--5--5--5-----|---5--5--5--5--5--5-----|

G|------------5-----------|------------------------|
D|8--------8--------------|------------------------|
A|------------------------|11-10-8--11-10-8--11----|
D|---5--5--------5--5--5--|---------------------10-|

G|------------------------|------------------------|
D|------------------------|------------------------|
A|------------------------|------------------------|
D|12-0--0--0--0--0--0--10-|12-0--0--0--0--0--0--10-|

G|------------------------|------------------------|
D|------------------------|---------------------9--|
A|------------------------|------------------------|
D|12-0--0--0--0--0--0--10-|12-0--0--0--10-12-12----|



Verse: same as above - play it like You did it before chorus with those
last two bars



Chorus: same as above except last bar. It goes like this:

G|------------------------|
D|------------------------|
A|------------------------|
D|12-0--0--0--0--0--0--0--|


Outro: 

  +     +     +     +      +     +     +     +
G|------------------------|------------------------|  
D|---------------------9--|10-------------------9--|  
A|15\0--0--0--0--0--0-----|---0--0--0--0--0--0-----|  
D|------------------------|------------------------|  
                                                      
G|------------------------|------------------------|  
D|10-------10-13-------13-|12-10-13-12-10-13-12-9--|  
A|---0--0--------0--0-----|------------------------|  
D|------------------------|------------------------|  

G|------------------------|------------------------|  
D|10-------------------9--|10-------------------9--|  
A|---0--0--0--0--0--0-----|---0--0--0--0--0--0-----|  
D|------------------------|------------------------|  
                                                      
G|------------------------|------------------------|  
D|10-------10-13-------13-|12-10-13-12-10-13-12-9--|  
A|---0--0--------0--0-----|------------------------|  
D|------------------------|------------------------|

G|------------------------|
D|10----------------------|
A|------------------------|  
D|---7---\----------------|

/  slide up
\  slide down
h  hammer-on
p  pull-off
~  let ring 





Comments


Popular Muse tabs & chords
Bliss 2 Bass Tabs
Exo-politics 3 Bass Tabs
Feeling Good Bass Tabs
Minimum 1 Bass Tabs
Nature 1 Bass Tabs
Butterfiles And Hurricanes Live Tabs
Mk Ultra Intro Tabs
Plug In Baby Intro Guitar Tabs
Tsp 1 Tabs
Yes Please Tabs


Song lyrics



↑ Back to top | Tablatures and chords are parodies/interpretations of the original songs. You may use it for private study, scholarship, research or language learning purposes only
© 2014 AZChords.com Contact us | Privacy policy | DMCA | Add/correct tabs | Request tabs | Top 50 tabs