» » »

Let Me Get What I Want Tabs (ver.1)

Artists:  A B C D E F G H I J K L M N O P Q R S T U V W X Y Z # 

Let Me Get What I Want Tabs (ver.1)

Muse
Rating:
0/5 (0 votes)

Hard to play? Try these video lessons and learn fast.
                Artist - Muse
Song - Please PLease Please Let Me Get What I Want
Album - Feeling Good/Hypermusic

This is definately one of muses best songs amd its pretty easy to play using 1 or 2 
guitars.Its nearly 100% the solo and chorus needs a little work! 

INTRO (BOTH GUITARS)
E|--------------------------------|
B|--------------------------------|
G|-222222222222222222222222222222-|
D|-222222222222222222222222222222-|
A|--------------------------------|
E|--------------------------------|

VERSE (BOTH GUITARS)
E|-----------------------444444-555555-777777-|
B|-----------------------444444-555555-777777-|
G|--------222222---------666666-777777-999999-|
D|-222222-222222-222222--666666-777777-999999-|
A|-222222--------222222--444444-555555-777777-|
E|-----------------------444444-555555-777777-|

BIT BEFORE CHORUS (GUITAR 1) {PLAYED AT SAME TIME AS} 
                             {LAST CHORD OF THE VERSE}
E|------------|
B|-101010-999-|
G|--9-9-9-999-|
D|------------|
A|------------|
E|------------|

CHORUS (BOTH GUITARS)
E|-555555-777777---------------|
B|-555555-777777---------------|
G|-777777-999999-222222--------|
D|-777777-999999-222222-222222-|
A|-555555-777777--------222222-|
E|-555555-777777---------------|

LITTLE SOLO AFTER CHORUS
E|-----------|
B|-----------|
G|-6---------|
D|---7-6h7p7-|
A|-----------|
E|-----------|

SOLO (GUITAR 1) + VERSE (GUITAR 2)
E|-----------------------------------0-0------------------------------|
B|2---2-2h3p2-----2---2b-2h3-2h3-2h3-----2h3-0-2h3-----2-2-2-------2--|
G|--4---------4-2---4------------------------------4-2-------4-2h4---2|
D|--------------------------------------------------------------------|
A|--------------------------------------------------------------------|
E|--------------------------------------------------------------------|

The solo needs a bit of work (there are a few notes missing!!)

ORDER

INTRO
VERSE
CHORUS
LITTLE SOLO
VERSE
CHORUS
LITTLE SOLO
SOLO (GUITAR 1) + VERSE (GUITAR 2)
            
Hard to play? Try these video lessons and learn fast. | Correct




comments powered by Disqus
↑ Back to top | Tablatures and chords are parodies/interpretations of the original songs. You may use it for private study, scholarship, research or language learning purposes only