» » »

Muse, In Your World Tabs (ver.9)

Artists:  A B C D E F G H I J K L M N O P Q R S T U V W X Y Z # 

In Your World Tabs (ver.9)

Muse Tabs
 Rating:
4/5 (4 votes)
In Your World lessons Tabs too difficult? Try these video lessons and learn fast
1
                Tuning: EAEGBe

Intro:


All are hammer-ons/pull-offs
e|-------------------------------------|
B|-------------------------------------|
G|-------------------------------------| X 3
E|---5-0-10-0-8-0-7-0-5-0-4-0-5-0-7-0--|
A|-------------------------------------|
E|-------------------------------------|

e|-------------------------------------------------|
B|-------------------------------------------------|
G|-------------------------------------------------|
E|---5-0-4-0-5-0-7-0-8-0-10-0-8-0-7-0-5-(let ring)-|
A|-------------------------------------------------|
E|-------------------------------------------------|


Bridge:

e|------------------|
B|------------------|
G|------------------|
E|--3--5--7---8--7--|
A|--3--5--7---8--7--|
E|------------------|


Chorus:

e|----------------------------------------------------------------------------|
B|----------------------------------------------------------------------------|
G|-----------10-10-10-------------9-9-9-------------9-9-9-----------10-10-10--| X 3
E|--8--8--8---8--8--8----8--8--8--7-7-7----5--5-5---7-7-7---5--5-5---8--8--8--|
A|-10-10-10---8--8--8---10-10-10--7-7-7----7--7-7---7-7-7---7--7-7---8--8--8--|
E|--8--8--8--------------8--8--8-----------5--5-5-----------5--5-5------------|


Refrain:

e|-------------------------------------|
B|-------------------------------------|
G|-------------------------------------| X 3
E|---5-0-10-0-8-0-7-0-5-0-4-0-5-0-7-0--|
A|-------------------------------------|
E|-------------------------------------|

e|-------------------------------------------------|
B|-------------------------------------------------|
G|-------------------------------------------------|
E|---5-0-4-0-5-0-7-0-8-0-10-0-8-0-7-0-5-(let ring)-|
A|-------------------------------------------------|
E|-------------------------------------------------|


Chorus:

e|----------------------------------------------------------------------------|
B|----------------------------------------------------------------------------|
G|-----------10-10-10-------------9-9-9-------------9-9-9-----------10-10-10--| X 3
E|--8--8--8---8--8--8----8--8--8--7-7-7----5--5-5---7-7-7---5--5-5---8--8--8--|
A|-10-10-10---8--8--8---10-10-10--7-7-7----7--7-7---7-7-7---7--7-7---8--8--8--|
E|--8--8--8--------------8--8--8-----------5--5-5-----------5--5-5------------|


Outro:

All are hammer-ons/pull-offs
e|-------------------------------------|
B|-------------------------------------|
G|-------------------------------------| X 3
E|---5-0-10-0-8-0-7-0-5-0-4-0-5-0-7-0--|
A|-------------------------------------|
E|-------------------------------------|

e|----------------------------------------|
B|----------------------------------------|
G|----------------------------------------|
E|---5-0-4-0-5-0-7-0-8-0-10-0-8-0-7-0-5---|
A|----------------------------------------|
E|----------------------------------------|

e|--------------------------------------------------------------------|
B|--------------------------------------------------------------------|
G|--------------------------------------------------------------------|
E|--5-0-4-0-5-0-7-0-8-0-7-0-8-0-10-0-12-0-10-0-12-0-13-0-12-0-13-0-12-|
A|--------------------------------------------------------------------|
E|--------------------------------------------------------------------|

e|--------------------------------------------------------------------|
B|--------------------------------------------------------------------|
G|--------------------------------------------------------------------|
E|--13-0-15-0-13-0-12-0-10-0-12-0-10-0-12-0-10-0-8-0-10-0-8-0-7-0-8-0-|
A|--------------------------------------------------------------------|
E|--------------------------------------------------------------------|

e|------------------|
B|------------------|
G|------------------|
E|--10-0-8-0-7-0----|
A|---------------7--|
E|---------------5--|
            
Submit corrections

comments powered by Disqus
↑ Back to top | Muse Tabs for In Your World. Lyrics for acoustic guitar and electric guitar. 1 Tablatures and chords are parodies/interpretations of the original songs. You may use it for private study, scholarship, research or language learning purposes only