>
 >
In Yor World

In Yor World Guitar Tabs

Muse - In Yor World chords, tabs, tablatures, lyrics

Guitar lessons | Add/correct | Request | Top 50 tabs Artists:  A B C D E F G H I J K L M N O P Q R S T U V W X Y Z 0-9

In Yor World Guitar Tabs – Muse

CD, Sheet music, Poster

Do you like In Yor World? Share with your friends now
Tabs
Have fun with playing it, this is a great song!!

Intro (Guitar)
E|------------------|
B|------------------|
G|------------------|      3x
D|------------------|
A|-0-5-3-2-0--------|
E|-----------4-5-7--|
                                
E|------------------|
B|------------------|
G|------------------|
D|------------------|      1x
A|-3-2-0-2-3-5-3-2--|
E|------------------|

2nd Intro
E|------------------|
B|------------------|
G|------------------|      3x
D|------------------|
A|-0-5-3-2-0--------|
E|-----------4-5-7--|


E|-------------------|
B|-------------------|
G|-------------------|
D|-------------------|     1x
A|-3-2-0-2-3-5-3-2-0-|
E|-------------------|

Chorus
E|-------|           |-------------------------------------------|
B|-------|           |-------------------------------------------|
G|-10-10-|           |-5-5-10-10--5-5--9-9--2-2--9-9--2-2--10-10|
D|-10-10-|           |-5-5--10-10--5-5--9-9--2-2--9-9--2-2--10-10| (3x)
A|--8--8-|           |-3-3---8--8--3-3--7-7--0-0--7-7--0-0---8--8|
E|-------|           |-------------------------------------------|
   |  |
Play this part
only the first time                                                         

Now play the 2nd intro again

Then play the Chorus again

Then play the 1st intro

Right after that, play this:

E|-------------------------------------------------------------------|
B|---------------------------------9-8-6-8-6-8-9-8-------------------|
G|-----------------3-2-0-2-3-5-3-2-----------------------------------|
D|-3-2-0-2-3-2-3-5----------------------------------3-2-0-2-3-5-3-2-0|
A|-------------------------------------------------------------------|
E|-------------------------------------------------------------------|





Comments


Popular Muse tabs & chords
Do We Need This Bass Tabs
Falling Down 2 Bass Tabs
Jimmy Kane 5 Bass Tabs
Space Dementia Bass Tabs
Neutron Star Collision 1 Chords
Falling Away With You Tabs
Fury (Solo) Tabs
Map Of The Problematique 4 Tabs
Time Is Running Out Tabs
Unintended 1 Tabs


Song lyrics



↑ Back to top | Tablatures and chords are parodies/interpretations of the original songs. You may use it for private study, scholarship, research or language learning purposes only
© 2014 AZChords.com Contact us | Privacy policy | DMCA | Add/correct tabs | Request tabs | Top 50 tabs