» » »

Muse, Invincible Bass tabs (ver.4)

Artists:  A B C D E F G H I J K L M N O P Q R S T U V W X Y Z # 

Invincible Bass tabs (ver.4)

Muse Tabs
Rating:
0/5 (0 votes)
Invincible lessons Tabs too difficult? Try these video lessons and learn fast
                Drop the E string to a C. Also drop the D string to a C 
(now D-string will be one octave higher than the E-string)


Intro (bass comes in after about 30 sec)

G|--------------------------------|
C|--------------------------------|
A|--------------------------------|
C|00000---00000---00000---00000---| x 3


Verse 1 (when vocals start, after 46 sec)

G|----------------------------------------------------------------|
C|----------------------------------------------------------------|
A|33333---33333---33333---33333-----------------------------------|
C|--------------------------------55555---55555---55555---55555---|

G|----------------------------------------------------------------|
C|----------------------------------------------------------------|
A|55555---55555---------------------------------------------------|
C|----------------77777---77777---88888---88888---99999---99999---|

G|----------------------------------------------------------------|
C|----------------------------------------------------------------|
A|----------------------------------------------------------------|
C|55555---55555---77777---77777---00000---00000---00000---00000---|


Verse 2

G|----------------------------------------------------------------|
C|----------------------------------------------------------------|
A|33333---33333---33333---55557---88888---88888---88888---88887---|
C|----------------------------------------------------------------|

G|----------------------------------------------------------------|
C|------------5---77777---77775---------------8---99999---99997---|
A|55555---5555--------------------77777---7777--------------------|
C|----------------------------------------------------------------|

G|----------------------------------------------------------------|
C|----------------------------------------------------------------|
A|88888---88887\--------------------------------------------------|
C|----------------77777---77777---00000---00000---00000---00000---|


Chorus

G|----------------------------------------------------------------|
C|----------------------------------------------------------------|
A|--------------------------------33333---33333-------------------|
C|55555---55555---77777---77777-------------------55555---55555---|

G|----------------------------------------------------------------|
C|----------------------------------------------------------------|
A|55555---55555---------------------------------------------------|
C|----------------77777---77777---88888---88888---99999---99999---|

G|----------------------------------------------------------------|
C|----------------------------------------------------------------|
A|----------------------------------------------------------------|
C|55555---55555---77777---77777---00000---00000---00000---00000---|

G|----------------------------------------------------------------|
C|----------------------------------------------------------------|
A|----------------------------------------------------------------|
C|00000---00000---00000---00000---00000---00000---00000---00000---|


Verse 3

G|----------------------------------------------------------------|
C|----------------------------------------------------------------|
A|3---3---3---3---3---3---5---7---8---8---8---8---8---8---8---7---|
C|----------------------------------------------------------------|

G|----------------------------------------------------------------|
C|------------5---7---7---7---5---------------8---9---9---9---7---|
A|5---5---5-----------------------7---7---7-----------------------|
C|----------------------------------------------------------------|

G|----------------------------------------------------------------|
C|----------------------------------------------------------------|
A|8---8---8---7\--------------------------------------------------|
C|----------------7---7---7---7---0---0---0---0---0---0---0---0---|


Chorus 2

G|----------------------------------------------------------------|
C|----------------------------------------------------------------|
A|--------------------------------3---3---3---3-------------------|
C|5---5---5---5---7---7---7---7-------------------5---5---5---5---|

G|----------------------------------------------------------------|
C|----------------------------------------------------------------|
A|5---5---5---5---------------------------------------------------|
C|----------------7---7---7---7---8---8---8---8---9---9---9---9---|

G|--------------------------------|
C|--------------------------------|
A|--------------------------------|
C|5---5---5---5---7---7---7---7---|


Riff (On with the overdrive, fast play) x3 (4th time has a different ending)

G|--------------------------------------------------------------------|
C|-4-0-0-12-0-0-10-0-0-8-0-0-7-0-10-0-8-0-0-7-0-0-5-0-0-8-0-0-7-0-5-0-|
A|--------------------------------------------------------------------|
C|--------------------------------------------------------------------|

4th time

G|--------------------------------------------------------------------|
C|-4-0-0-12-0-0-10-0-0-8-0-0-7-0-10-0-8-0-0-7-0-0-5-5-5-5-5-5-5-5-5-5\|
A|--------------------------------------------------------------------|
C|--------------------------------------------------------------------|


Solo (still with overdrive)

G|----------------------------------------------------------------|
C|----------------------------------------------------------------|
A|33333---33333---33333---55557---88888---88888---88888---88887---|
C|----------------------------------------------------------------|

G|----------------------------------------------------------------|
C|------------5---77777---77775---------------8---99999---99997---|
A|55555---5555--------------------77777---7777--------------------|
C|----------------------------------------------------------------|

G|----------------------------------------------------------------|
C|----------------------------------------------------------------|
A|88888---88887\--------------------------------------------------|
C|----------------77777---77777---00-00---00-00---00-00---00-00---|


Chorus 3

G|----------------------------------------------------------------|
C|----------------------------------------------------------------|
A|--------------------------------3333333333333333----------------|
C|55555555555555557777777777777777----------------5555555555555555|

G|----------------------------------------------------------------|
C|----------------------------------------------------------------|
A|5555555555555555------------------------------------------------|
C|----------------777777777777777788888888888888889999999999999999|

G|--------------------------------|
C|--------------------------------|
A|--------------------------------|
C|55555555555555557777777777777777|


Outro

G|----------------------------------------------------------------|
C|----------------------------------------------------------------|
A|33-33---33-33---33-33---33-33---33-33---33-33-------------------|
C|------------------------------------------------00-00---00-00---|
            
Submit corrections

comments powered by Disqus
↑ Back to top | Muse Bass for Invincible. Lyrics for acoustic guitar and electric guitar. Tablatures and chords are parodies/interpretations of the original songs. You may use it for private study, scholarship, research or language learning purposes only