>
 >
Instant Messenger

Instant Messenger Bass Tabs

Muse - Instant Messenger chords, tabs, tablatures, lyrics

Guitar lessons | Add/correct | Request | Top 50 tabs Artists:  A B C D E F G H I J K L M N O P Q R S T U V W X Y Z 0-9

Instant Messenger Bass Tabs – Muse

CD, Sheet music, Poster

Do you like Instant Messenger? Share with your friends now
Bass TabsBass Tabs v2
[Artist] _Muse_
[Song] _Instant Messenger/Pink Ego Box_
[Album] _Muscle Museum EP/Muscle Museum CD2 B-Side_
[Bassist] _Chris Wolstenholme_

[Tuning] _EADG_

__KEY__

/ - Slide up
\ - Slide down
(15) - Don't play
h - Hammer-on

Intro (0:09 - 0:23)

G|----------------------------\                           \-----|
D|----------------------------/    Continue, until 0:23   /-----|
A|---------14-14-------14-14--\     where you end with:   \-----|
E|--12-12--------12-12--------/                           /-12--|

Verse 1 (0:26 - 1:16)

G|-----------------------------------------------------------|
D|-----------------------------------------------------------| x 2
A|-----------------------------------------------------------| 
E|-0-0---3-3---0-0---10-10---0-0---1-1-1-1-1-1-1-1-2-2---2-2-|


G|--------------------------------------------------------------------------|
D|--------------------------------------------------------------------------|
A|--------------------------------------------------------------------------|
E|-0-0---3-3---0-0---10-10---0-0---1-1-1-1-1-1-1-1-2-2-2-2-2-2-2-2--0-0-0-0-|

Chorus (1:16 - 1:26)

G|---------------------------------------------------------------|
D|---------------------------------------------------------------|
A|-5-5-5-5-5-5-5-5-----------------------------------------------|
E|------------------0-1-2-2-2-2-2-2-3-hold----------------/(15)\-|

---> Intro (1:27 - 1:33)

---> Verse 2 (1:35 - 2:09)

---> Chorus (2:09 - 2:20)

---> Intro (2:20 - 2:34)

Outro (2:36 - 3:20)

G|--------------\
D|-4------4-----/ Repeat until 2:45
A|---2h4----2h4-\
E|--------------/ 

G|-------------------\
D|-------------------/ Repeat until 2:54
A|-----4---------4---\
E|-2-2---2---2-2---2-/

G|---------------------------------|
D|---------------------------------| Repeat to end, add in this fill
A|---------------------------------| when it appears in the music.
E|-2-1-0-1-2-1-0-1-2-1-0-1-2-1-0-1-|

G|-----------------|
D|-----------------|
A|---------0-2-3-4-|
E|-2-1-0-1---------|

End with: (3:20)

G|---||
D|---||
A|---||
E|-2-||





Comments


Popular Muse tabs & chords
Exogenesis Symphony Part 1 Overture Bass Tabs
Jimmy Kane 4 Bass Tabs
Dead Star Chords
Guiding Light Chords
Knights Of Cydonia 2 Chords
Dark Shines Tabs
Easily 3 Tabs
Hyper Music 3 Tabs
Madness 4 Tabs
New Born Different Chorus Tabs


Song lyrics



↑ Back to top | Tablatures and chords are parodies/interpretations of the original songs. You may use it for private study, scholarship, research or language learning purposes only
© 2014 AZChords.com Contact us | Privacy policy | DMCA | Add/correct tabs | Request tabs | Top 50 tabs