» » »

Muse, Instant Messager Bass tabs (ver.1)

Artists:  A B C D E F G H I J K L M N O P Q R S T U V W X Y Z # 

Instant Messager Bass tabs (ver.1)

Muse Tabs
 Rating:
4/5 (4 votes)
Instant Messager lessons Tabs too difficult? Try these video lessons and learn fast
                
Ãlbum: B-Sides ( Muscle Museum EP )


______________________________________


Intro
                         X6
G|| ----------------------|
D||------11-11-----11-11--|
A||--9-9-------9-9--------|
E||-----------------------|

G|| ----------------------|-----|
D||------11-11-----11-11--|-----|
A||--9-9-------9-9--------|--9--|
E||-----------------------|-----|

Verse                         
                                                               X2
G||---------------------------------------------------------------------|
D||---------------------------------------------------------------------|  
A||---------------------------------------------------------------------|
E||-0-0---3-3---0-0-----10-10-----0-0------1-1-1-1-1-1-1-1---2-2---2-2--|

G||-----------------------------------------------------------------------------------------|
D||-----------------------------------------------------------------------------------------|
A||-----------------------------------------------------------------------------------------|
E||-0-0---3-3---0-0-----10-10-----0-0------1-1-1-1-1-1-1-1-2-2-2-2-2-2-2-2-2-2-2-2-0-0-0-0--|

Chorus

G||--------------------------------|-------|
D||--------------------------------|-------|
A||--5--55--5-5-55-----------------|-------|
E||-----------------0-1-2-2222-3~--|--3/9--|

Chorus End
                         X3 
G|| ----------------------|-----|
D||------11-11-----11-11--|-----|
A||--9-9-------9-9--------|--9--|
E||-----------------------|-----|

Verse 2                       
                                                              
G||---------------------------------------------------------------------|
D||---------------------------------------------------------------------|  
A||---------------------------------------------------------------------|
E||-0-0---3-3---0-0-----10-10-----0-0------1-1-1-1-1-1-1-1---2-2---2-2--|

G||-----------------------------------------------------------------------------------------|
D||-----------------------------------------------------------------------------------------|
A||-----------------------------------------------------------------------------------------|
E||-0-0---3-3---0-0-----10-10-----0-0------1-1-1-1-1-1-1-1-2-2-2-2-2-2-2-2-2-2-2-2-0-0-0-0--|

Chorus 2

G||--------------------------------|-------|
D||--------------------------------|-------|
A||--5--55--5-5-55-----------------|-------|
E||-----------------0-1-2-2222-3~--|--3/9--|

Chorus End 2
                         X6
G|| ----------------------|-----|
D||------11-11-----11-11--|-----|
A||--9-9-------9-9--------|--9--|
E||-----------------------|-----|
 
Breakdown

  (  11º fret )             X2                           X2
G||--11---------11-----------|--11------------11-----------|
D||-------11----------11-----|--------9h11-------9h11------|
A||----99----99----99----99--|-----99------99---------99\--|
E||--------------------------|-----------------------------|      
 
                     X4
G||-------------------|
D||-------------------|  
A||------4-4-----4-4--|
E||--2-2-----2-2------|

                      X4
G||--------------------|
D||--------------------|
A||--------------------|
E||--2-1-0-1--2-1-0-1--|

                                       X4
G||--------------------------------------|-----|
D||--------------------------------------|-----|
A||-----------------------------0-2-3-4--|--2--|
E||--2-1-0-1--2-1-0-1--2-1-0-1-----------|-----|
            
Submit corrections

comments powered by Disqus
↑ Back to top | Muse Bass for Instant Messager. Lyrics for acoustic guitar and electric guitar. Tablatures and chords are parodies/interpretations of the original songs. You may use it for private study, scholarship, research or language learning purposes only