» » »

Improv Tabs (ver.1)

Artists:  A B C D E F G H I J K L M N O P Q R S T U V W X Y Z # 

Improv Tabs (ver.1)

Muse
Rating:
0/5 (0 votes)

Hard to play? Try these video lessons and learn fast.
                
Tuning:Standard
Effects:Fuzz distortion

This is the track named 'improv' on the Muse HAARP DVD. It's pretty fun and not to hard 
play, and sounds damn good as you

can see on the DVD. Obviously it doesn't have to be played exactly like this as it's 
an improv, but this is  basicly

100% exact to the DVD version as i slowed it down to about 20% speed to tab this. Enjoy! 
and it's my first tab :)

|---xx-xx---------|-----------------|---xx-xx---------|-----------------|
|---xx-xx---------|-----------------|---xx-xx---------|-----------------|
|---xx-xx---------|-----------------|---xx-xx---------|-----------------|
|---xx-xx---------|------------/----|---xx-xx---------|------------/----|
|---xx-xx---------|---5h7-x----/----|---xx-xx---------|---5h7-x----/----|
|---xx-xx---------|---------0-3/----|---xx-xx---------|---------0-3/----|

Im not sure exactly how much he slides up here, or on what string, but anywhere near the 
of the neck sounds good.

|---xx-xx---------|-----------------|-----------------|-----------------|
|---xx-xx---------|-----------------|-----------------|-----------------|
|---xx-xx---------|-----------------|-----------------|-----------------|
|---xx-xx---------|-----------------|-4h5p4-----------|---/--x--\--x----|
|---xx-xx---------|---0h2-x-5-7-----|------h7-x-7-5-7~|---/--x--\--x----|
|---xx-xx---------|-----------------|-----------------|---/--x--\--x----|


|-----------------|-----------------|-----------------|-----------------|
|-----------------|-----------------|-----------------|-----------------|
|-----------------|-----------------|-----------------|-----------------|
|-----------------|-----------------|-----------------|----------5-7-5--|
|---7-------------|--5---5/7-5------|---7-------------|--5---5/7--7----7|
|-0---0-4-0-5-6-7-|7---7-------7-5-3|-0---0-4-0-5-6-7-|7---7------------|

Bass comes in here and covers same riff

|-----------------|-----------------|-----------------|-----------------|
|-----------------|-----------------|-----------------|-----------------|
|-----------------|-----------------|-----------------|-----------------|
|-----------------|-----------------|-----------------|----------5-7-5--|
|---7-------------|--5---5/7-5------|---7-------------|--5---5/7--7----7|
|-0---0-4-0-5-6-7-|7---7-------7-5-3|-0---0-4-0-5-6-7-|7---7------------|

                                                                      |-
|-----------------|-----------------|-----------------|-----------------|
|-----------------|-----------------|-----------------|---------12----12|
|-----------------|-----------------|-----------------|---------11b13-11|
|-----------------|-----------------|-----------------|-----------------|
|---7-------------|--5---5/7-5------|---7-------------|--5---5/7--------|
|-0---0-4-0-5-6-7-|7---7-------7-5-3|-0---0-4-0-5-6-7-|7---7------------|

----hold bend-|
|----------------------------|---------------------|-----------------------|
|-12-12-12--12---------------|---------------------|-----------------------|
|-11-11-11--11r11-11p9---9-9-|---------------------|-----------------------|
|---------------------11-----|11-9-10p9------------|---14------------------|
|----------------------------|----------5/7-5------|---------11----12-13-14|
|----------------------------|----------------7-5-3|-12---12----12---------|


|------------------------------|
|------------------------------|
|------------------------------|
|-12----12h14p12-14-12---------|
|----14---------------14-12-10-|
|------------------------------|


|--------------------------|-----------------------|----------------------|
|--------------------------|-----------------------|----------------------|
|--------------------------|-----------------------|----------------------|
|-----14-------------------|--12---12/14-12--------|---14-----------------|
|-10--------11----12-13-14-|14---14--------14-12-10|--------11----12-13-14|
|---12---12----12----------|-----------------------|-12--12----12---------|

        |--hold bend--|
|----------------------------------|
|----------------------------------|
|-11----11-11-11-11-11-------------|
|-14b16-14-14-14-14-14r14----------|
|-------------------------12b13r12~|
|----------------------------------|

| b  bend
| r  return bend
| /  slide up
| \  slide down
| h  hammer-on
| p  pull-off
| ~  vibrato
| +  harmonic
| x  Mute note
            
Hard to play? Try these video lessons and learn fast. | Correct




comments powered by Disqus
↑ Back to top | Tablatures and chords are parodies/interpretations of the original songs. You may use it for private study, scholarship, research or language learning purposes only