» » »

Hysteria Bass tabs (ver.6)

Artists:  A B C D E F G H I J K L M N O P Q R S T U V W X Y Z # 

Hysteria Bass tabs (ver.6)

Muse
Rating:
0/5 (0 votes)

Hard to play? Try these video lessons and learn fast.
                                                                                   Hysteria
                                                                    Muse

Bass Tab (obviously)
I do realise it is incorrect in parts because i play it this way, im gonna leave 
it up like this anyhoo if it upsets you see a therapist

       
G||--------------------------------------|
D||--------------------------------------|
A||--0-0-10-0-10-12-0-10-0-7-0-8-8-7-5-7-|
E||--------------------------------------|


    
-------------------------------------------|
-------------------------------------------|
-------------------10--------10-10---10-12-|
--0-0-10-0-10-12-0----0-12-0-------0-------|


    
---------------------------------------|--------------------------------------|
--0-0-10-0-10-12-0-10-0-10-9-0-9-8-0-8-|--7-----------------------------------|
---------------------------------------|----0-10-0-10-12-0-10-0-7-0-8-8-7-5-7-|
---------------------------------------|--------------------------------------|


    
--------------------------------------|
--------------------------------------|
--0-0-10-0-10-12-0-10-0-7-0-8-8-7-5-7-|
--------------------------------------|


    
-------------------------------------------|
-------------------------------------------|
-------------------10--------10-10---10-12-|
--0-0-10-0-10-12-0----0-12-0-------0-------|


    
---------------------------------------|--------------------------------------|
--0-0-10-0-10-12-0-10-0-10-9-0-9-8-0-8-|--7-----------------------------------|
---------------------------------------|----0-10-0-10-12-0-10-0-7-0-8-8-7-5-7-|
---------------------------------------|--------------------------------------|


    
--------------------------------------|
--------------------------------------|
--0-0-10-0-10-12-0-10-0-7-0-8-8-7-5-7-|
--------------------------------------|


  
-------------------------------------------|
-------------------------------------------|
-------------------10--------10-10---10-12-|
--0-0-10-0-10-12-0----0-12-0-------0-------|


    
---------------------------------------|--------------------------------------|
--0-0-10-0-10-12-0-10-0-10-9-0-9-8-0-8-|--7-----------------------------------|
---------------------------------------|----0-10-0-10-12-0-10-0-7-0-8-8-7-5-7-|
---------------------------------------|--------------------------------------|


    
--------------------------------------|
--------------------------------------|
--0-0-10-0-10-12-0-10-0-7-0-8-8-7-5-7-|
--------------------------------------|

  
-------------------------------------------|
-------------------------------------------|
-------------------10--------10-10---10-12-|
--0-0-10-0-10-12-0----0-12-0-------0-------|


  
---------------------------------------|--------------------------------------|
--0-0-10-0-10-12-0-10-0-10-9-0-9-8-0-8-|--7-----------------------------------|
---------------------------------------|----0-10-0-10-12-0-10-0-7-0-8-8-7-5-7-|
---------------------------------------|--------------------------------------|


  
--------------------------------------|
--------------------------------------|
--0-0-10-0-10-12-0-10-0-7-0-8-8-7-5-7-|
--------------------------------------|


   
-------------------------------------------|
-------------------------------------------|
-------------------10--------10-10---10-12-|
--0-0-10-0-10-12-0----0-12-0-------0-------|


   
---------------------------------------|--------------------------------------|
--0-0-10-0-10-12-0-10-0-10-9-0-9-8-0-8-|--7-----------------------------------|
---------------------------------------|----0-10-0-10-12-0-10-0-7-0-8-8-7-5-7-|
---------------------------------------|--------------------------------------|


    
--------------------------------------|
--------------------------------------|
--0-0-10-0-10-12-0-10-0-7-0-8-8-7-5-7-|
--------------------------------------|


  
-------------------------------------------|
-------------------------------------------|
-------------------10--------10-10---10-12-|
--0-0-10-0-10-12-0----0-12-0-------0-------|


  
---------------------------------------|--------------------------------------|
--0-0-10-0-10-12-0-10-0-10-9-0-9-8-0-8-|--7-----------------------------------|
---------------------------------------|----0-10-0-10-12-0-10-0-7-0-8-8-7-5-7-|
---------------------------------------|--------------------------------------|


 
------5---3-5---3---5---3-5---3-5-|----------------------------------|
----------------------------------|------3---3-5---3---5---3-5---3-5-|
--3-3---3-----3---3---3-----3-----|----------------------------------|
----------------------------------|--3-3---3-----3---3---3-----3-----|


   
---------------------------------------|--------------------------------------|
--0-0-10-0-10-12-0-10-0-10-9-0-9-8-0-8-|--7-----------------------------------|
---------------------------------------|----0-10-0-10-12-0-10-0-7-0-8-8-7-5-7-|
---------------------------------------|--------------------------------------|


 
   
------5---3-5---3---5---3-5---3-5-|----------------------------------|
----------------------------------|------3---3-5---3---5---3-5---3-5-|
--3-3---3-----3---3---3-----3-----|----------------------------------|
----------------------------------|--3-3---3-----3---3---3-----3-----|


---------------------------------------|--------------------------------------|
--0-0-10-0-10-12-0-10-0-10-9-0-9-8-0-8-|--7-----------------------------------|
---------------------------------------|----0-10-0-10-12-0-10-0-7-0-8-8-7-5-7-|
---------------------------------------|--------------------------------------|


    
--------------------------------------|
--------------------------------------|
--0-0-10-0-10-12-0-10-0-7-0-8-8-7-5-7-|
--------------------------------------|


    
-------------------------------------------|
-------------------------------------------|
-------------------10--------10-10---10-12-|
--0-0-10-0-10-12-0----0-12-0-------0-------|


    
---------------------------------------|--------------------------------------|
--0-0-10-0-10-12-0-10-0-10-9-0-9-8-0-8-|--7-----------------------------------|
---------------------------------------|----0-10-0-10-12-0-10-0-7-0-8-8-7-5-7-|
---------------------------------------|--------------------------------------|


   
--------------------------------------|
--------------------------------------|
--0-0-10-0-10-12-0-10-0-7-0-8-8-7-5-7-|
--------------------------------------|


    
-------------------------------------------|
-------------------------------------------|
-------------------10--------10-10---10-12-|
--0-0-10-0-10-12-0----0-12-0-------0-------|


    
---------------------------------------|--------------------------------------|
--0-0-10-0-10-12-0-10-0-10-9-0-9-8-0-8-|--7-----------------------------------|
---------------------------------------|----0-10-0-10-12-0-10-0-7-0-8-8-7-5-7-|
---------------------------------------|--------------------------------------|


   
--------------------------------------|
--------------------------------------|
--0-0-10-0-10-12-0-10-0-7-0-8-8-7-5-7-|
--------------------------------------|


    
-------------------------------------------|
-------------------------------------------|
-------------------10--------10-10---10-12-|
--0-0-10-0-10-12-0----0-12-0-------0-------|


    
---------------------------------------|--------------------------------------|
--0-0-10-0-10-12-0-10-0-10-9-0-9-8-0-8-|--7-----------------------------------|
---------------------------------------|----0-10-0-10-12-0-10-0-7-0-8-8-7-5-7-|
---------------------------------------|--------------------------------------|


    
------5---3-5---3---5---3-5---3-5-|----------------------------------|
----------------------------------|------3---3-5---3---5---3-5---3-5-|
--3-3---3-----3---3---3-----3-----|----------------------------------|
----------------------------------|--3-3---3-----3---3---3-----3-----|


    
---------------------------------------|--------------------------------------|
--0-0-10-0-10-12-0-10-0-10-9-0-9-8-0-8-|--7-----------------------------------|
---------------------------------------|----0-10-0-10-12-0-10-0-7-0-8-8-7-5-7-|
---------------------------------------|--------------------------------------|


    
------5---3-5---3---5---3-5---3-5-|----------------------------------|
----------------------------------|------3---3-5---3---5---3-5---3-5-|
--3-3---3-----3---3---3-----3-----|----------------------------------|
----------------------------------|--3-3---3-----3---3---3-----3-----|


    
---------------------------------------|
--0-0-10-0-10-12-0-10-0-10-9-0-9-8-0-8-|
---------------------------------------|
---------------------------------------|


    
-------------------------------------------|
-------------------------------------------|
-------------------10--------10-10---10-12-|
--0-0-10-0-10-12-0----0-12-0-------0-------|


                                            
                                   
---------------------------------------|---------------------------------------|
---------------------------------------|---------------------------------------|
---------------------------------------|---------------------------------------|
--0-0-10-0-10-12-0-10-0-10-9-0-9-8-0-8-|--7-0-10-0-10-12-0-10-0-10-9-0-9-8-0-8-|


    
---------------------------------------|---------------------------------------|
---------------------------------------|---------------------------------------|
---------------------------------------|---------------------------------------|
--7-0-10-0-10-12-0-10-0-10-9-0-9-8-0-8-|--7-0-10-0-10-12-0-10-0-10-9-0-9-8-0-8-|


    
-------------------------------------------|
-------------------------------------------|
-------------------10--------10-10---10-12-|
--7-0-10-0-10-12-0----0-12-0-------0-------|


    
--------------------------------------|
--------------------------------------|
--0-0-10-0-10-12-0-10-0-7-0-8-8-7-5-7-|
--------------------------------------|


    
-------------------------------------------|
-------------------------------------------|
-------------------10--------10-10---10-12-|
--0-0-10-0-10-12-0----0-12-0-------0-------|


    
---------------------------------------|--------------------------------------|
--0-0-10-0-10-12-0-10-0-10-9-0-9-8-0-8-|--7-----------------------------------|
---------------------------------------|----0-10-0-10-12-0-10-0-7-0-8-8-7-5-7-|
---------------------------------------|--------------------------------------|


   
--------------------------------------|
--------------------------------------|
--0-0-10-0-10-12-0-10-0-7-0-8-8-7-5-7-|
--------------------------------------|


    
-------------------------------------------|
-------------------------------------------|
-------------------10--------10-10---10-12-|
--0-0-10-0-10-12-0----0-12-0-------0-------|


   
---------------------------------------|--------------------------------------|
--0-0-10-0-10-12-0-10-0-10-9-0-9-8-0-8-|--7-----------------------------------|
---------------------------------------|----0-10-0-10-12-0-10-0-7-0-8-8-7-5-7-|
---------------------------------------|--------------------------------------|


    
------5---3-5---3---5---3-5---3-5-|----------------------------------|
----------------------------------|------3---3-5---3---5---3-5---3-5-|
--3-3---3-----3---3---3-----3-----|----------------------------------|
----------------------------------|--3-3---3-----3---3---3-----3-----|


    
---------------------------------------|--------------------------------------|
--0-0-10-0-10-12-0-10-0-10-9-0-9-8-0-8-|--7-----------------------------------|
---------------------------------------|----0-10-0-10-12-0-10-0-7-0-8-8-7-5-7-|
---------------------------------------|--------------------------------------|


    
------5---3-5---3---5---3-5---3-5-|----------------------------------|
----------------------------------|------3---3-5---3---5---3-5---3-5-|
--3-3---3-----3---3---3-----3-----|----------------------------------|
----------------------------------|--3-3---3-----3---3---3-----3-----|


   
---------------------------------------|--------------------------------------|
--0-0-10-0-10-12-0-10-0-10-9-0-9-8-0-8-|--7-----------------------------------|
---------------------------------------|----0-10-0-10-12-0-10-0-7-0-8-8-7-5-7-|
---------------------------------------|--------------------------------------|


    
------5---3-5---3---5---3-5---3-5-|----------------------------------|
----------------------------------|------3---3-5---3---5---3-5---3-5-|
--3-3---3-----3---3---3-----3-----|----------------------------------|
----------------------------------|--3-3---3-----3---3---3-----3-----|


   
---------------------------------------|--------------------------------------|
--0-0-10-0-10-12-0-10-0-10-9-0-9-8-0-8-|--7-----------------------------------|
---------------------------------------|----0-10-0-10-12-0-10-0-7-0-8-8-7-5-7-|
---------------------------------------|--------------------------------------|


    
------5---3-5---3---5---3-5---3-5-|----------------------------------|
----------------------------------|------3---3-5---3---5---3-5---3-5-|
--3-3---3-----3---3---3-----3-----|----------------------------------|
----------------------------------|--3-3---3-----3---3---3-----3-----|


  
---------------------------------------|
--0-0-10-0-10-12-0-10-0-10-9-0-9-8-0-8-|
---------------------------------------|
---------------------------------------|

  
-------------------------------------------|
-------------------------------------------|
-------------------10--------10-10---10-12-|
--0-0-10-0-10-12-0----0-12-0-------0-------|


   
---------------------------------------|---------------------------------------|
---------------------------------------|---------------------------------------|
---------------------------------------|---------------------------------------|
--0-0-10-0-10-12-0-10-0-10-9-0-9-8-0-8-|--7-0-10-0-10-12-0-10-0-10-9-0-9-8-0-8-|


    
---------------------------------------|---------------------------------------|
---------------------------------------|---------------------------------------|
---------------------------------------|---------------------------------------|
--7-0-10-0-10-12-0-10-0-10-9-0-9-8-0-8-|--7-0-10-0-10-12-0-10-0-10-9-0-9-8-0-8-|


    
---------------------------------------|---------------------------------------|
---------------------------------------|---------------------------------------|
---------------------------------------|---------------------------------------|
--7-0-10-0-10-12-0-10-0-10-9-0-9-8-0-8-|--7-0-10-0-10-12-0-10-0-10-9-0-9-8-0-8-|


  Minim            
--------------------||
--------------------||
--------------------||
--0-----------------||



yeah a few problems in there i think, got lazy in the end, just wanted to get a 
first tab out of the way is all. cheers 
            
Hard to play? Try these video lessons and learn fast. | Correct




comments powered by Disqus
↑ Back to top | Tablatures and chords are parodies/interpretations of the original songs. You may use it for private study, scholarship, research or language learning purposes only