» » »

Muse, Hysteria Tabs (ver.7)

Artists:  A B C D E F G H I J K L M N O P Q R S T U V W X Y Z # 

Hysteria Tabs (ver.7)

Muse Tabs
 Rating:
4/5 (4 votes)
Hysteria lessons Tabs too difficult? Try these video lessons and learn fast
                                              HYSTERIA

do a Very plectrum slide from 00:10 to 00:19 

then

INTRO RIFF 2

e----------------------------------------
B-----12^10----12^10---12^10---12^12^12--
G----------------------------------------
D----------------------------------------   X 2
A--12-------11-------8-------7-----------
E----------------------------------------

VERSE (all bass & drums)

CHORUS

e--x-x-x-------------------------------------------------
B--x-x-x--------------------------6--6--6--6-------------
G--x-x-x--5--5--5--5--------------7--7--7--7-------------
D--x-x-x--5--5--5--5--5--5--5--5--7--7--7--7--7--7--7--7-
A--x-x-x--3--3--3--3--5--5--5--5--5--5--5--5--7--7--7--7-
E--x-x-x--------------3--3--3--3--------------5--5--5--5-

e------------------------------------------------------------------
B--------------------------6--6--6--6------------------------------
G--5--5--5--5--------------7--7--7--7------------------------------
D--5--5--5--5--5--5--5--5--7--7--7--7------------------------------
A--3--3--3--3--5--5--5--5--5--5--5--5------------------------------
E--------------3--3--3--3--------------0--0--10--10/12-15-12-15-17-

INTRO RIFF 2

Verse 2 (no guitar)

CHORUS 2

e--x-x-x-------------------------------------------------
B--x-x-x--------------------------6--6--6--6-------------
G--x-x-x--5--5--5--5--------------7--7--7--7-------------
D--x-x-x--5--5--5--5--5--5--5--5--7--7--7--7--7--7--7--7-
A--x-x-x--3--3--3--3--5--5--5--5--5--5--5--5--7--7--7--7-
E--x-x-x--------------3--3--3--3--------------5--5--5--5-

e-------------------------------------------------
B--------------------------6--6--6--6-------------
G--5--5--5--5--------------7--7--7--7-------------
D--5--5--5--5--5--5--5--5--7--7--7--7--7--7--7--7-
A--3--3--3--3--5--5--5--5--5--5--5--5--7--7--7--7-
E--------------3--3--3--3--------------5--5--5--5-

e------------------------------------------------------------
B------------------------------------------------------------
G------------------------------------------------------------
D------------------------------------------------------------
A------------------------------------------------------------
E--0-0-10-0-10h12p10-10p9-9p8-8p7-10-0-10h12p10-10p9-9p8-8p7-

e----------------------------------------------------
B----------------------------------------------------
G----------------------------------------------------
D----------------------------------------------------
A----------------------------------------------------
E--10-0-10h12p10-10p9-9p8-8p7-10-0-10h12-15-12-15-17-


SOLO
e--------12-------13-------13-------12-------12-------13-------13-------12-
B--------------------------------------------------------------------------
G--14-14----14-14----14-14----14-14----13-13----13-13----13-13----13-13----
D--------------------------------------------------------------------------
A--------------------------------------------------------------------------
E--------------------------------------------------------------------------

e--------13-------17-------13-------12-------12-------13-------13-------12-
B--------------------------------------------------------------------------
G--14-14----14-14----14-14----14-14----14-14----14-14----14-14----14-14----
D--------------------------------------------------------------------------
A--------------------------------------------------------------------------
E--------------------------------------------------------------------------

e--------12-------13-------13-------12-------12-------13-------13-------12-
B--------------------------------------------------------------------------
G--14-14----14-14----14-14----14-14----13-13----13-13----13-13----13-13----
D--------------------------------------------------------------------------
A--------------------------------------------------------------------------
E--------------------------------------------------------------------------

e--------13-------17-------13-------12-
B--------------------------------------
G--14-14----14-14----14-14----14-14----
D--------------------------------------
A--------------------------------------
E--------------------------------------

e--12-------10-------8-------7-----
B----------------------------------
G-----14-14----12-12---10-10---9-9-
D----------------------------------
A----------------------------------
E----------------------------------

e--------------------------------------------10----------
B--13----------12^12-10-12----------12-12-13----10-------
G-----12-------------------12----------------------10----
D--------14-10----------------12----------------------12-
A--------------------------------14----------------------
E--------------------------------------------------------

e--10-------------------10----------------------------------------
B-----13-12/13-------------13-12/13----------12^12-10-12----------
G--------------14-------------------12-------------------12-------
D-----------------14-10----------------14-10----------------12----
A--------------------------------------------------------------14-
E-----------------------------------------------------------------
      slow bend
e-------------------10--------------------|
B--12-12-13^^-10-------13-12-13-----------|
G----------------10-------------14--------|
D----------------------------------14-10\-|
A-----------------------------------------|
E-----------------------------------------|

CHORUS 2

OUTRO
e------------------------------------------------------------|
B------------------------------------------------------------|
G------------------------------------------------------------|
D------------------------------------------------------------|
A------------------------------------------------------------|
E--0-0-10-0-10h12p10-10p9-9p8-8p7-10-0-10h12p10-10p9-9p8-8p7-|

e--------------------------------------------------------|
B--------------------------------------------------------|
G--------------------------------------------------------|
D--------------------------------------------------------|
A--------------------------------------------------------|
E--10-0-10h12p10-10p9-9p8-8p7-10-0-10h12p10-10p9-9p8-8p7-|

e---------------------------------------------------------|
B---------------------------------------------------------|
G---------------------------------------------------------|
D---------------------------------------------------------|
A---------------------------------------------------------|
E--10-0-10h12p10-10p9-9p8-8p7-10-0-10h12p10-10p9-9p8-8p7--|
            
Submit corrections

comments powered by Disqus
↑ Back to top | Muse Tabs for Hysteria. Lyrics for acoustic guitar and electric guitar. Tablatures and chords are parodies/interpretations of the original songs. You may use it for private study, scholarship, research or language learning purposes only