» » »

Hysteria Bass tabs (ver.4)

Artists:  A B C D E F G H I J K L M N O P Q R S T U V W X Y Z # 

Hysteria Bass tabs (ver.4)

Muse
Rating:
0/5 (0 votes)

Tabs too difficult? Try these video lessons and learn fast.
                This is the proper bass tab for Hysteria - Muse. 
This may be a bit harder than the other ways but it's the way that Chris 
Wolstenholme(Muse bassist) plays it.


INTO/VERSE
G|----------------------------|
D|----5---5-7-5---------------|
A|0-0---0-------7-7-8-7-5-7---|
E|----------------------------|

G|--------------------------------|
D|------------5-5---5-5-5---5-7---|
A|----5---5-7-----7-------7-------|
E|0-0---0-------------------------|

G|----5---5-7---5---5-4---4-3---3-2--|
D|0-0---0-----0---0-----0-----0------|
A|-----------------------------------|
E|-----------------------------------|

G|----------------------------|
D|----5---5-7-5---------------|
A|0-0---0-------7-7-8-7-5-7---|
E|----------------------------|

Play this as many times as needed until the chorus.

CHORUS
G|----5-3h5------5-3h5-------------------------|
D|--------------------------5-3h5------5-3h5---|
A|-3--------3--3-------3-----------------------|
E|-----------------------3--------3--3-------3-|

G|----7-5h7------7-5h7-------------------------|
D|--------------------------7-5h7------7-5h7---|
A|-5--------5--5-------5-----------------------|
E|-----------------------5--------5--5-------5-|

G|----5-3h5------5-3h5-------------------------|
D|-------------------------5-3h5-------5-3h5---|
A|-3--------3--3-------3-----------------------|
E|-----------------------3-------3--3--------3-|

G|----7-5h7------7-5h7---------------5-5---5-5-5---5-7--|
D|---------------------------5---5-7-----7-------7------|
A|-5--------5--5-------5-0-0---0------------------------|
E|------------------------------------------------------|

Then you go throught the verse and the chorus again and as soon as you get past 
the chorus you come to a breakdown which is:

G|------------------------------------| x3
D|------------------------------------|
A|----5---5-7---5---5-4---4-3---3-2---|
E|0-0---0-----0---0-----0-----0-------|

G|--------------------------------|
D|------------5-5---5-5-5---5-7---|
A|----5---5-7-----7-------7-------|
E|0-0---0-------------------------|

(solo) play verse as many times as needed. 
And that's the end(: thankyou(:
            
Tabs too difficult? Try these video lessons and learn fast.




comments powered by Disqus
↑ Back to top | Tablatures and chords are parodies/interpretations of the original songs. You may use it for private study, scholarship, research or language learning purposes only