» » »

Muse, Hysteria Tabs (ver.4)

Artists:  A B C D E F G H I J K L M N O P Q R S T U V W X Y Z # 

Hysteria Tabs (ver.4)

Muse Tabs
 Rating:
4/5 (4 votes)
Hysteria lessons Tabs too difficult? Try these video lessons and learn fast
                e|---------------------------------------------------------------------------------------|
B|--------17-17-------18-18-------18-18-17-17----17-------17-17-------18-18-17-17----17--|
G|--14 14-------14-14-------14-14-------------14----13-13-------13-13-------------13-----|
D|---------------------------------------------------------------------------------------|
A|---------------------------------------------------------------------------------------|
E|---------------------------------------------------------------------------------------|


e|--------------------17-17--------------------------------------------------------------|
B|--------18-18-------------------18-18-------17-17-------17-17-------18-18-------18-18--|
G|--14-14-------14-14-------14-14-------14-14-------14-14-------14-14-------14-14--------|
D|---------------------------------------------------------------------------------------|
A|---------------------------------------------------------------------------------------|
E|---------------------------------------------------------------------------------------|


e|--------------------------------------------------------------------------------17-17--|
B|--17-17----17-------17-17-------18-18-------18-18-17-17----17-------18-18--------------|
G|--------14----13-13-------13-13-------13-13-------------13----14-14-------14-14--------|
D|---------------------------------------------------------------------------------------|
A|---------------------------------------------------------------------------------------|
E|---------------------------------------------------------------------------------------|


e|---------------------------------------------------------------------------------------|
B|--------18-18-------17-17-17----------15----------13----------12-----------------------|
G|--14-14-------14-14----------14-14-14--------------------------------------------------|
D|-----------------------------------------15-15-15----14-14-14----12-12-12--------------|
A|---------------------------------------------------------------------------------------|
E|---------------------------------------------------------------------------------------|


***Solo***

e|---------------------------------------------------------------------------------------|
B|--13-------12b--10-12-------12-12-13-15--------13b-12-13--------15-13-12---------------|
G|-----12---------------12----------------14---------------14----------------------------|
D|--------14---------------12----------------15---------------14-------------------------|
A|---------------------------------------------------------------------------------------|
E|---------------------------------------------------------------------------------------|


e|----------------------------------------------------------------------12-------10b-8---|
B|--13-------12b--10-12-------12-12-13-14b-----13b-12-13-------15-13-12----13------------|
G|-----12---------------12-------------------------------14-------------------12---------|
D|--------14---------------12--------------14b--------------14---------------------------|
A|---------------------------------------------------------------------------------------|
E|---------------------------------------------------------------------------------------|


e|--10-------10-10-12-13-------13b-13p12----12---10b----12--------10b--8--10-------------|
B|-----12----------------15--------------13----------------13----------------12----------|
G|--------12----------------14--------------------------------12----------------12-------|
D|---------------------------------------------------14----------------------------------|
A|---------------------------------------------------------------------------------------|
E|---------------------------------------------------------------------------------------|


e|--10-10-12-13-------13b-13p12----12--10b----12-------10b--8--10--------10-10b----------|
B|--------------15--------------13---------------13---------------12---------------------|
G|-----------------14-------------------------------12---------------12------------------|
D|-----------------------------------------14--------------------------------------------|
A|---------------------------------------------------------------------------------------|
E|---------------------------------------------------------------------------------------|


e|--13-------13b-13p12----12--10b----------|
B|-----15--------------13------------------|
G|--------14-------------------------------|
D|---------------------------------14------|
A|-----------------------------------------|
E|-----------------------------------------|
            
Submit corrections

comments powered by Disqus
↑ Back to top | Muse Tabs for Hysteria. Lyrics for acoustic guitar and electric guitar. Tablatures and chords are parodies/interpretations of the original songs. You may use it for private study, scholarship, research or language learning purposes only