» » »

Hyper Music Bass tabs (ver.6)

Artists:  A B C D E F G H I J K L M N O P Q R S T U V W X Y Z # 

Hyper Music Bass tabs (ver.6)

Muse
Rating:
0/5 (0 votes)

Tabs too difficult? Try these video lessons and learn fast.
                
Because I saw that a lot of Hyper Music Bass tabs weren't correct i decided to post this 
(i my opinion) correct tab. A lot of tabs want you to use a lot of hammers and pull-ofs 
in the verse, which is not neccesary at all.
The tuning is D-A-D-G
The intro is as usual;


G|--------|
D|--------|
A|--------|
D|-10-/-0-|

Chorus:

G|-----------------------------------|
D|-----------------------------------|
A|-----5--------3-5------5---2-3-2-0-|
D|-0------0-3-5------0---------------|


The verse, however, is diffrent;

G|------------------------------------------|
D|---------------5-x-7-7-x-9-x-1010-x-12----|
A|-5-5-x-7x--8-8-x--------------------------|
D|------------------------------------------|

G|----------------------------------------------|
D|-5-5-x-5-x-5-5--5-5-x-5-x-5-5-x-7-x-8-8-------|
A|-----------------------------------------0h3--|
D|----------------------------------------------|


The x just means Mute.
If you have any corrections just let me know.
            
Tabs too difficult? Try these video lessons and learn fast.


comments powered by Disqus
↑ Back to top | Tablatures and chords are parodies/interpretations of the original songs. You may use it for private study, scholarship, research or language learning purposes only